Oops, an error
Loading. Please wait.

Whered You Go Tab

version 3
version 3

Whole song

Interactive

2,588 views 1 this week
no commentswrite comment
1 2 3 4 5
accurate
x 1
add to favorites
launch autoscroll
font size
0
reset
how to read this tab
guitar tuner
Tab Pro tools
  • play this tab
  • loop segment
  • change instrument
  • show fretboard
  • metronome
Autoscroll
slow
fast
+/-
esc
set tempo
stop
The Mighty Mighty Bosstones - Where'd You Go?

Tablature Notation Key:

x = dead note
p.m. = palm mute
/ = slide up
. over note = staccato
_ over note = tenuto
|: and :| = repeat enclosed measures (total number of times played is indicated at top of phrase)
"..." = lyrics at beginning of section


Intro 
  <----------------3x--------------->
e|:----------------|----------------:|----------------|----------------|----------------|
B|:--------.---.---|----------------:|--------_---_---|----------------|----------------|
G|:0-0-0-0-2---2---|----------------:|0-0-0-0-2---2---|7-7-7-7-7-7-7-7/|9-9-9-9-9-9-9-9-|
D|:4-4-5-7-2---2---|----------------:|4-4-5-7-2---2---|5-5-5-5-5-5-5-5/|7-7-7-7-7-7-7-7-|
A|:--------0---0---|4-4-5---4-4-5---:|--------0---0---|----------------|----------------|
E|:----------------|----------------:|----------------|----------------|----------------|
                    p.m.............

Verse "Checked the clock when I got home…"
Clean
  <----------------8x------------------>
E|:x-5-x-5-x-5-x-5-x-3-x-3-x-3-x-3-x-3-:|
B|:x-5-x-5-x-5-x-5-x-3-x-3-x-3-x-3-x-3-:|
G|:x-6-x-6-x-6-x-6-x-4-x-4-x-4-x-4-x-4-:|
D|:------------------------------------:|
A|:------------------------------------:|
E|:------------------------------------:|

Bridge "I wanna know…"
Distorted
  <----------------4x--------------->
E|:----------------|----------------:|
B|:----------------|----------------:|
G|:-----7-----7----|----------------:|
D|:5---57-----77---|----------------:|           
A|:5---55-----57---|----------------:|           
E|:3---3-------5---|----------------:| 
   1e+a2e+a3e+a4e+a 1e+a2e+a3e+a4e+a
               Hold Chord...........

Verse
Clean
  <----------------8x------------------>
E|:x-5-x-5-x-5-x-5-x-3-x-3-x-3-x-3-x-3-:|
B|:x-5-x-5-x-5-x-5-x-3-x-3-x-3-x-3-x-3-:|
G|:x-6-x-6-x-6-x-6-x-4-x-4-x-4-x-4-x-4-:|
D|:------------------------------------:|
A|:------------------------------------:|
E|:------------------------------------:|

Bridge
Distorted
  <----------------4x--------------->
E|:----------------|----------------:|
B|:----------------|----------------:|
G|:-----7-----7----|----------------:|
D|:5---57-----77---|----------------:|           
A|:5---55-----57---|----------------:|           
E|:3---3-------5---|----------------:| 
   1e+a2e+a3e+a4e+a 1e+a2e+a3e+a4e+a
               Hold Chord...........
Bridge 2
Distorted
  <----------------7x--------------->
E|:----------------|----------------:|----------------|------------x-5-|
B|:----------------|----------------:|----------------|------------x-5-|
G|:2---2---7-7-7-7/|9-9-9-9-0-0-0-0-:|2-2-2-2-2-2-2-2-|2-2-2-------x-6-|
D|:2---2---5-5-5-5/|7-7-7-7-4-4-5-7-:|2-2-2-2-2-2-2-2-|2-2-2-----------|
A|:0---0-----------|----------------:|0-0-0-0-0-0-0-0-|0-0-0-----------|
E|:----------------|----------------:|----------------|----------------|
   p.m first 4x only................  p.m...................

Verse
Clean
  <----------------8x------------------>
E|:x-5-x-5-x-5-x-5-x-3-x-3-x-3-x-3-x-3-:|
B|:x-5-x-5-x-5-x-5-x-3-x-3-x-3-x-3-x-3-:|
G|:x-6-x-6-x-6-x-6-x-4-x-4-x-4-x-4-x-4-:|
D|:------------------------------------:|
A|:------------------------------------:|
E|:------------------------------------:|

Outro
Distorted
  <----------------4x--------------->                end
E|:----------------|----------------:|----------------||
B|:----------------|----------------:|----------.-----||
G|:-----7-----7----|----------------:|----------7-----||
D|:5---57-----77---|----------------:|7---7-7-5-7-----||     
A|:5---55-----57---|----------------:|7---7-7-5-5-----||
E|:3---3-------5---|----------------:|5---5-5-3-------||
   1e+a2e+a3e+a4e+a 1e+a2e+a3e+a4e+a
              Hold Chord............
comments
We did not receive enough feedback on this tab! Please rate:
print report bad tab
1 2 3 4 5
I want to post or [tab]
guest
You may want to rate the tab now too:
select rating
Please do not post tabs as comments. Select "correction" instead!