Oops, an error
Loading. Please wait.

Whisper In Her Ear tab

1,383 views 6 this week
no commentswrite comment
1 2 3 4 5
x 3
add to favorites
×
Save as Personal and add changes to this tab that will be seen only by you. Learn more ›
×
You can save this tab as Personal to edit and correct it or add notes. All changes will be seen only by you. Learn more »
launch autoscroll
font size
0
reset
how to read this tab
guitar tuner
edit
Autoscroll
slow
fast
+/-
esc
set tempo
stop
-------------------------------------------------------------------------------
                   WHISPER IN HER EAR - The Milk Carton Kids
-------------------------------------------------------------------------------
Tabbed by: rdcoons
E-mail: gnr123@gmail.com
Tuning: standard

 
Capo 5

Riff:
    C                     Fmaj7      C                    G
E---0----------------------0---------0--------------------3------3-------------|
B---1---1------------------1---------1---1----------------0------0-------------|
G---0---0------------------2---------0---0----------------0------0-------------|
D---0h2-2--2h3-2-0---------3---------0h2-2--2h3-2-0---2---0------0-------------|
A---3--------------3-1-0---3---------3--------------3-----2-0h12-2----0-2-3----|
E--------------------------1----------------------------3-3------3-------------|

    C                     Fmaj7      C         (G)     (Fmaj7)  (C)
E---0----------------------0---------------------------------------------------|
B---1---1------------------1---------------------------------------------------|
G---0---0------------------2---------0--------------------------------0--------|
D---0h2-2--2h3-2-0---------3---------0h2-2-0--------0-2-3---------0h2-3-2------|
A---3--------------3-1-0---3---------3-------3-2----------------3-----3--------|
E--------------------------1---------------------------------------------------|


Intro (with riff):
C Fmaj7 C G 
C Fmaj7 C G Fmaj7 C

Verse:
C
I could never take it

                      Fmaj7 
I was never one to be tough

C
Someone says we'll make it

        (A-3-----2---0)  G  (A 0h1-2--023)
I never thought that I could

C
Follow up the paces

                       Fmaj7 
Every time your misery clears

C
A spectacle of mercy

                (A-3--2-0)   G (D-0h2-3)
Running down the hope that appears

Am
Listen up I mean it

        Fmaj7                        C   (A-3--2-0)
There's something here between us to hear

G
Think I wouldn't notice

                              Fmaj7  C
Something else is fighting my fear


Chorus:
         Fmaj7                C
If I had one more try I could fly with her

(A-3-----2---0)  G (A 0h1-2)
 Hide a-way the years

         Fmaj7                  C (A-2--0)
If I had one more life I could die with her

G Fmaj7    G    C
A whisper in her ear


Interlude (with riff): 
C Fmaj7 C G 
C Fmaj7 C G Fmaj7 C


Verse:
C
Everything is rising

                           Fmaj7
Like I never hoped that it would

C
Somewhere down inside me

              (A-3--2---0)  G (A-0h12--32023)
I could never find what was good

C
Memories are tough here

                         Fmaj7
Heartache is rougher than time

C
Someone left a promise

           (A-3-2--0) G (D-0h2-3)
I'm already aching to try

Am
Who would ever want it

Fmaj7                  C (A-3-2-0)
Who would ever even dare

G
Hope remains hopeless

                            Fmaj7   C
The joke is that it's always there


Chorus:
         Fmaj7                C
If I had one more try I could fly with her

(A-3-----2---0)  G (A 0h1-2)
 Hide a-way the years

         Fmaj7                  C (A-2--0)
If I had one more life I could die with her

G Fmaj7    G    C
A whisper in her ear


End (with riff):
C Fmaj7 C G 
C Fmaj7 C G Fmaj7 C



The numbers in ()'s are essentially tabs of either walk downs or walk ups.  Ignore them if it confuses you.

            
            
Suggest correction
Creating personal tab
Creating personal tab
You can edit any tab online and save it as your Personal.

You can edit, replace or remove any tab part or add personal notes – all changes will be seen only by you.

Personal tabs can be accessed anytime from any device, even offline.
Learn more »
Give kudos to tab author, rate the tab!
1 2 3 4 5
comments
print report bad tab
guest
You may want to rate the tab now too:
select rating
Wanna post a correction for this tab? Suggest correction