Oops, an error
Loading. Please wait.

Find The Time tab

469 views 3 this week
1 commentread comment
1 2 3 4 5
x 3
add to favorites
×
Save as Personal and add changes to this tab that will be seen only by you. Learn more ›
×
You can save this tab as Personal to edit and correct it or add notes. All changes will be seen only by you. Learn more »
launch autoscroll
font size
0
reset
how to read this tab
guitar tuner
edit
Autoscroll
slow
fast
+/-
esc
set tempo
stop
The Mini Band - Find The Time

Tabbed by Agatha2405
Tuning: Drop D

This tab is for flaying along the original tab.

****************
| h   hammer-on
| p   pull-off
| ~   vibrato
| b   Bend
****************


e|---------------------------------------------------------|
B|---------------------------------------------------------|
G|---------------------------------------------------------|
D|---------------------------------------------------------|x7
A|---------------------------------------------------------|
D|--0-0-0-0--3--0--3--0--3-5~---0-0-0-0--3--0--3--0--3--0--|

e|---------------------------------------------------|
B|---------------------------------------------------|
G|---------------------------------------------------|
D|---------------------------------------------------|
A|---------------------------------------------------|
D|--0-0-0-0--3--0--3--0--3-5~---0-0-0-0--3--0--3--5--|


e|-------------------------------------------------------------------|
B|-------------------------------------------------------------------|
G|-------------------------------------------------------------------|
D|--7-7-7-7-7-7-7-7-3-3-3-3-3-3-3-3-----------------5-5-5-5-6-6-6-6--|x2
A|--5-5-5-5-5-5-5-5-1-1-1-1-1-1-1-1-3-3-3-3-3-3-3-3-3-3-3-3-4-4-4-4--|
D|----------------------------------3-3-3-3-3-3-3-3------------------|

e|---------------------------------------------------------|
B|---------------------------------------------------------|
G|---------------------------------------------------------|
D|---------------------------------------------------------|x6
A|---------------------------------------------------------|
D|--0-0-0-0--3--0--3--0--3-5~---0-0-0-0--3--0--3--0--3--0--|

e|---------------------------------------------------|
B|---------------------------------------------------|
G|---------------------------------------------------|
D|---------------------------------------------------|
A|---------------------------------------------------|
D|--0-0-0-0--3--0--3--0--3-5~---0-0-0-0--3--0--3--5--| 
 

e|-------------------------------------------------------------------|
B|-------------------------------------------------------------------|
G|-------------------------------------------------------------------|
D|--7-7-7-7-7-7-7-7-3-3-3-3-3-3-3-3-----------------5-5-5-5-6-6-6-6--|x2
A|--5-5-5-5-5-5-5-5-1-1-1-1-1-1-1-1-3-3-3-3-3-3-3-3-3-3-3-3-4-4-4-4--|
D|----------------------------------3-3-3-3-3-3-3-3------------------|

e|---------------------|
B|---------------------|
G|---------------------|
D|---------------------|x4
A|---------------------|
D|--12--10--8--7--5-3--|

e|-----------------------------------------------|
B|--13b-13b-13b-13b-13~--------------------------|
G|-----------------------10-h12-p10-h12-p10-h12--|
D|-----------------------------------------------|
A|-----------------------------------------------|
D|-----------------------------------------------|

e|--------------------------------------------------|
B|------------10------------10-----13-13-14-14-15~--|
G|--12-p10--------12-p10-------12-------------------|
D|---------12------------12-------------------------|
A|--------------------------------------------------|
D|--------------------------------------------------|

e|-----13-15-15b-15~-----13-15-13---------13-15b-p13-15b-15b------|
B|--15----------------15----------15~--15--------------------15~--|
G|----------------------------------------------------------------|
D|----------------------------------------------------------------|
A|----------------------------------------------------------------|
D|----------------------------------------------------------------|


e|-------------------------------------------------------------------|
B|-------------------------------------------------------------------|
G|-------------------------------------------------------------------|
D|--7-7-7-7-7-7-7-7-3-3-3-3-3-3-3-3-----------------5-5-5-5-6-6-6-6--|x2
A|--5-5-5-5-5-5-5-5-1-1-1-1-1-1-1-1-3-3-3-3-3-3-3-3-3-3-3-3-4-4-4-4--|
D|----------------------------------3-3-3-3-3-3-3-3------------------|

e|---------------------------------------------------------|
B|---------------------------------------------------------|
G|---------------------------------------------------------|
D|---------------------------------------------------------|x2
A|---------------------------------------------------------|
D|--0-0-0-0--3--0--3--0--3-5~---0-0-0-0--3--0--3--0--3--0--|

Link for The Mini Band: http://theminiband.com/

            
            
Suggest correction
Creating personal tab
Creating personal tab
You can edit any tab online and save it as your Personal.

You can edit, replace or remove any tab part or add personal notes – all changes will be seen only by you.

Personal tabs can be accessed anytime from any device, even offline.
Learn more »
Give kudos to tab author, rate the tab!
1 2 3 4 5
comments
print report bad tab
1 comment total.
0 reply
Agatha2405 52 Aug 28, 2013 12:58 AM

All of this
e|-----------------------------------------------------------------------------------|
B|-----------------------------------------------------------------------------------|
G|-----------------------------------------------------------------------------------|
D|--7-7-7-7-7-7-7-7-3-3-3-3-3-3-3-3-----------------5-5-5-5-6-6-6-6-7-7-7-7-7-7-7-7--|x2
A|--5-5-5-5-5-5-5-5-1-1-1-1-1-1-1-1-3-3-3-3-3-3-3-3-3-3-3-3-4-4-4-4-5-5-5-5-5-5-5-5--|
D|----------------------------------3-3-3-3-3-3-3-3----------------------------------|
Should be this
e|-------------------------------------------------------------------|
B|-------------------------------------------------------------------|
G|-------------------------------------------------------------------|
D|--7-7-7-7-7-7-7-7-3-3-3-3-3-3-3-3-----------------5-5-5-5-6-6-6-6--|x2
A|--5-5-5-5-5-5-5-5-1-1-1-1-1-1-1-1-3-3-3-3-3-3-3-3-3-3-3-3-4-4-4-4--|
D|----------------------------------3-3-3-3-3-3-3-3------------------|

guest
You may want to rate the tab now too:
select rating
Wanna post a correction for this tab? Suggest correction