Oops, an error
Loading. Please wait.

No Id Acoustic tab

82 views 1 this week
no commentswrite comment
1 2 3 4 5
2 more votes to show rating
add to favorites
×
Save as Personal and add changes to this tab that will be seen only by you. Learn more ›
×
You can save this tab as Personal to edit and correct it or add notes. All changes will be seen only by you. Learn more »
launch autoscroll
font size
0
reset
how to read this tab
guitar tuner
edit
Autoscroll
slow
fast
+/-
esc
set tempo
stop
Author
These years of walking around in someone else's skin, are doing me in.
These years of lying have me believing everything, I've ever said.
e|---------------------------------------------------------------------------------------|
B|---------------------------------------------------------------------------------------|
G|---------------------------------------------------------------------------------------|
D|-7-7---5-5-----------------repeat------------------------------------------------------|
A|-5-5---3-3-----------------------------------------------------------------------------|
E|-5-5---3-3-----------------------------------------------------------------------------|

Choose a life, choose a life
e|------------------------------------------------------------------------------------|
B|------------------------------------------------------------------------------------|
G|------------------------------------------------------------------------------------|
D|-3-3-----------------------repeat---------------------------------------------------|
A|-2-2--------------------------------------------------------------------------------|
E|-2-2--------------------------------------------------------------------------------|

I wonder where I start and where we're crossing over,
remember, remember, it's nothing personal.
e|---------------------------------------|
B|---------------------------------------|
G|---------------------------------------|
D|-9-9---4-4---5--5---7--7---------------|
A|-7-7---2-2---3--3---5--5-------repeat--|
E|-7-7---2-2---3--3---5--5---------------|

Dry clean my only suit, dye my hair a lighter shade, staple my face.
I've learned the phrases, I need to get me through the day, I'll throw them away.
e|--------------------------------------------------------------------------------------|
B|--------------------------------------------------------------------------------------|
G|--------------------------------------------------------------------------------------|
D|-7--7--------5--5---------------------------------------------------------------------|
A|-5--5--------3--3-------------repeat--------------------------------------------------|
E|-5--5--------3--3---------------------------------------------------------------------|

Choose a life, choose a life.
e|-------------------------------------------------------------------------------------|
B|-------------------------------------------------------------------------------------|
G|-------------------------------------------------------------------------------------|
D|-3--3------------------------repeat--------------------------------------------------|
A|-2--2--------------------------------------------------------------------------------|
E|-2--2--------------------------------------------------------------------------------|

I wonder where I start and where we're crossing over,
remember, remember, it's nothing personal.
e|---------------------------------------|
B|---------------------------------------|
G|---------------------------------------|
D|-9-9---4-4---5--5---7--7---------------|
A|-7-7---2-2---3--3---5--5-------repeat--|
E|-7-7---2-2---3--3---5--5---------------|

Taking my face off, been wearing it all the time,
I don't even know who I am.
e|----------------------------------------------------|
B|----------------------------------------------------|
G|----------------------------------------------------|
D|-4--4-----5--5-----7--7-----------------------------|
A|-2--2-----3--3-----5--5---------------------repeat--|
E|-2--2-----3--3-----5--5-----------------------------|

I wonder where I start and where we're crossing over,
remember, remember, it's nothing personal.
I wonder where I start and where we're crossing over,
remember, remember, it's nothing personal.
e|---------------------------------------|
B|---------------------------------------|
G|---------------------------------------|
D|-9-9---4-4---5--5---7--7---------------|
A|-7-7---2-2---3--3---5--5-------repeat--|
E|-7-7---2-2---3--3---5--5---------------|

            
            
Suggest correction
Creating personal tab
Creating personal tab
You can edit any tab online and save it as your Personal.

You can edit, replace or remove any tab part or add personal notes – all changes will be seen only by you.

Personal tabs can be accessed anytime from any device, even offline.
Learn more »
Give kudos to tab author, rate the tab!
1 2 3 4 5
comments
print report bad tab
guest
You may want to rate the tab now too:
select rating
Wanna post a correction for this tab? Suggest correction