Oops, an error
Loading. Please wait.

Muswell Tab

1,869 views 1 this week
no commentswrite comment
1 2 3 4 5
3 more votes to show rating
add to favorites
launch autoscroll
font size
0
reset
how to read this tab
guitar tuner
Autoscroll
slow
fast
+/-
esc
set tempo
stop
Help us to improve Ultimate-Guitar.com Take our survey!
×
-------------------------------------------------------------------------------
                             MUSWELL - The Miserable Rich
-------------------------------------------------------------------------------
Tabbed by: BS
Email:bass dot spores at gmail dot com

Tuning: Standard

Ok, this is my first tab.
I just discovered this song and it's quite easy to play.


This picking pattern is played throughout the whole song:

e|----------0---------------0---------------0---------------0----------------|
B|----0-------0-------0-------0-------0-------0-------0-------0--------------|
G|------0-------0-------0-------0-------0-------0-------0-------0------------|
D|--2-----2-------2-2-----2-------2-----------------0-----0-------0----------|
A|----------------------------------3-----3-------3--------------------------|
E|---------------------------------------------------------------------------|


The strumming part in the middle just uses these 3 "chords"
The high notes seem to keep steady, so I figured 
the guitarist is just moving his fingers across the A- and D-string

e|--0---0---0---|
B|--0---0---0---|
G|--0---0---0---|
D|--2---4---5---|
A|--3---5---7---|
E|--------------|

Enjoy this beautiful song :D

| /  slide up
| \  slide down
| h  hammer-on
| p  pull-off
| ~  vibrato
| +  harmonic
| x  Mute note
===============================================================================

Signed: http://themiserablerich.com/
Suggest correction
Give kudos to tab author, rate the tab!
1 2 3 4 5
comments
print report bad tab
guest
You may want to rate the tab now too:
select rating
Wanna post a correction for this tab? Suggest correction