Oops, an error
Loading. Please wait.

Punching In A Dream Tab

5,977 views 6 this week
4 commentsread comments
1 2 3 4 5
excellent!
x 3
add to favorites
launch autoscroll
font size
0
reset
how to read this tab
guitar tuner
Tab Pro tools
  • play this tab
  • loop segment
  • change instrument
  • show fretboard
  • metronome
×
Best way to learn
"Punching In A Dream"
Autoscroll
slow
fast
+/-
esc
set tempo
stop
Contributor
This is the Mission In Motions cover of Punching In A Dream by The Naked and 
Famous that they performed on Triple J's Like A Version.

Tuning: One Step Down - DGCFAd

Bm    -     024430
G/Bm  -     324430
Dsus2 -     **0230   OR    *57755
Asus2 -     **0330
A     -     *02220
G     -     320033

 
Intro: Bm      G/Bm     Dsus2

d|----3---------------------------------------------------------------------|
A|--------3--5--------5-----------------------------------------------------|
F|--5---5--------5--------5-------------------------------------------------|
C|--------------------------------------------------------------------------|
G|--------------------------------------------------------------------------|
D|--------------------------------------------------------------------------|




Bm                 G/Bm
All the lights go down

                     Dsus2 
As we crawl into the spaces

Bm                  G/Bm
Fight tight all the screens

                      Dsus2
This is worse then it seems

Bm   G/Bm
Wait
                   
                     Dsus2   Asus2
I don't ever want to be here

Bm                  G/Bm                          Dsus2     Asus2
Like punching in a dream breathing life into the nightmare

Xylophone part. 

d|-------------------------------------------------------------------------|
A|-------------------------------------------------------------------------|
F|---4-4---4-7-6---7-7---7-14-11---11-11-11-11--9-9--9-11-7----------------|
C|---*-*---*-*-*---*-*---*-*--*----*--*--*--*---*-*--*-*--*----------------|
G|---2-2---2-5-4---5-5---5-12-9----9--9--9--9---7-7--7-9--5----------------|
D|-------------------------------------------------------------------------|



Bm              G/Bm
If it all falls apart

                   Dsus2 
Then I will surely wake it

Bm                    G/Bm
Bright lights turning green

                      Dsus2
This is worse then it seems

Bm   G/Bm
Wait
                   
                     Dsus2   Asus2
I don't ever want to be here

Bm                  G/Bm                          Dsus2     Asus2
Like punching in a dream breathing life into the nightmare

Xylophone part. 

d|-------------------------------------------------------------------------|
A|-------------------------------------------------------------------------|
F|---4-4---4-7-6---7-7---7-14-11---11-11-11-11--9-9--9-11-7----------------|
C|---*-*---*-*-*---*-*---*-*--*----*--*--*--*---*-*--*-*--*----------------|
G|---2-2---2-5-4---5-5---5-12-9----9--9--9--9---7-7--7-9--5----------------|
D|-------------------------------------------------------------------------|

1st Guitar

d|------0---------0---------0-------------------------------------------|
A|----3--3-3----2--2-2----3--3-3-------3-----2--------------------------|
F|---2-2--2----2-2--2----4-4--4-------0-----2---------------------------|
C|--0---------0----------------------0-----2----------------------------|
G|----------------------2-----------------0-----------------------------|
D|----------------------------------3-----------------------------------|

2nd Guitar

d|---10---9--5-----2--3-3/5--3---2--------------------------------------|
A|---12--10--7-----3--5-5/7--5---3--------------------------------------|
F|----------------------------------------------------------------------|
C|----------------------------------------------------------------------|
G|----------------------------------------------------------------------|
D|----------------------------------------------------------------------|


For get through,
Forget you
In a place where you're feeling lost
In the corner
of this moment
And the face that you wish was a ghost


Dsus2   Asus2    
Woah

Bm    G   A  
Woah, Woah


Bm   G/Bm
Wait
                   
                     Dsus2   Asus2
I don't ever want to be here

Bm                  G/Bm                          Dsus2     Asus2
Like punching in a dream breathing life into the nightmare



Dsus2   Asus2    
Woah

Bm    G   A  
Woah, Woah


Finish on Dsus2

comments
We did not receive enough feedback on this tab! Please rate:
print report bad tab
1 2 3 4 5
4 comments total. Showing first comments.
0 reply
Shaun F wrote on April 18 2011, 08:25 am

Sweet tab, i have been waiting for this one tab for ages. Cheers.

Just a quick questions:

How do you play the G /Bm chord because it just doesnt sound right for me...

+1 reply
Shaun F wrote on April 20 2011, 09:29 am

Also the Asus2 should be

**0220

0 reply
nick_raff wrote on April 28 2011, 05:33 am

hey mate. yeah thats my bad on the Asus2, just a typo.

for the G/Bm, dont play the 2 on the A string. play it 3*4430. should sound right like that.

I want to post or [tab]
guest
You may want to rate the tab now too:
select rating
Please do not post tabs as comments. Select "correction" instead!