Oops, an error
Loading. Please wait.

Heaven On Earth Tab

7 views 1 this week
no commentswrite comment
1 2 3 4 5
3 more votes to show rating
add to favorites
launch autoscroll
font size
0
reset
how to read this tab
guitar tuner
Autoscroll
slow
fast
+/-
esc
set tempo
stop
Help us to improve Ultimate-Guitar.com Take our survey!
×
Author
INTRO: 
this is 100% correct and how Wayne Hussey plays it live.
Listen to the song for strumming pattern. 

e|---15--15-15-15--15-15----13-13-13-13-13-13---11-11-11-11-11-11---6-6-6-6---5-----------|
B|---15--15-15-15--15-15----13-13-13-13-13-13---11-11-11-11-11-11---6-6-6-6---6-----------|
G|----0---0--0--0---0--0-----0--0--0--0--0--0----0--0--0--0--0--0---0-0-0-0---0-----------|
D|----0---0--0--0---0--0-----0--0--0--0--0--0----0--0--0--0--0--0---0-0-0-0---0-----------|
A|---13--13-13-13--13-13----12-12-12-12-12-12---10-10-10-10-10-10---5-5-5-5---x-----------|
E|---15--15-15-15--15-15----13-13-13-13-13-13---11-11-11-11-11-11---6-6-6-6---6-----------|
     G                                                              Bb
     

       
VERSE: I TRIED TO PUT THE LYRICS WITH THE CHORD CHANGES.



      Ever......      there's oceans..... 

e|------3------------2---------5----8-------------------|
B|------3------------3---------6----6-------------------|
G|------0------------0---------0----0-------------------|
D|------0------------0---------0----0-------------------|
A|------X------------X---------X----X-------------------|
E|------3------------3---------6----6-------------------|


     TAKE TO THE SEA....     TAKE TO THE SEA....
e|---3----------2---------5-------------7---------------|
B|---3----------3---------6-------------8---------------|
G|---0----------0---------0-------------0---------------|
D|---0----------0---------0-------------0---------------|
A|---X----------X---------X-------------X---------------|
E|---3----------3---------6-------------8---------------|

CHORUS

  PALE MOON......    MOTHER....
e|--11----------------13-----------6--5-----------------|
B|--11----------------13-----------6--6-----------------|
G|---0-----------------0-----------0--0-----------------|
D|--10----------------12-----------0--0-----------------|
A|---X-----------------X-----------5--X-----------------|
E|--11----------------13-----------6--6-----------------|


BRIDGE:

  I'D DIE FOR YOU.....                             FOR THE CHILD......
e|---3-----------1-----0------0----------------------0------------0----------------|
B|---3-----------0-----1------1----------------------4------------1----------------|
G|---0-----------0-----2------0----------------------5------------2---------------|
D|---0-----------0-----3------2----------------------6------------3---------------|
A|---X-----------X-----3------3----------------------6------------3---------------|
E|---3-----------3-----1------X----------------------4------------1--------------|
   
     G                FMAJ7   C                    G#MAJ7        FMAJ7
Suggest correction
Give kudos to tab author, rate the tab!
1 2 3 4 5
comments
print report bad tab
guest
You may want to rate the tab now too:
select rating
Wanna post a correction for this tab? Suggest correction