Oops, an error
Loading. Please wait.

Serpants Kiss Tab

759 views 3 this week
no commentswrite comment
1 2 3 4 5
3 more votes to show rating
add to favorites
launch autoscroll
font size
0
reset
how to read this tab
guitar tuner
Autoscroll
slow
fast
+/-
esc
set tempo
stop
Help us to improve Ultimate-Guitar.com Take our survey!
×
Author
e|-------------------------------4----------------------------------------------------|
B|-454----4-------------------------5-------------------------------------------------|
G|-----64---4-6-4-2--------2----------------------------------------------------------|
D|-----------------------0------------------------------------------------------------|
A|---------------------0--------------------------------------------------------------|
E|------------------------------------------------------------------------------------|

e|--------------------------------------------------------------------------------------|
B|--------------------------------------------------------------------------------------|
G|--------6------------4----------------------------------------------------------------|
D|----------6-------------4--------4---------44-22-1-22---------------------------------|
A|-4444----------2222-----------------4-------------------------------------------------|
E|-----------------------------2222-----------------------------------------------------|

Verse+Chorus  C#/B/F#

Pre chorus- A/C#m(see tab below for fingering)


e|-------7----------------0------------------------------------------------------|
B|-------5----------------5------------------------------------------------------|
G|-------6----------------6------------------------------------------------------|
D|-------7----------------6------------------------------------------------------|
A|------------------------4------------------------------------------------------|
E|-------------------------------------------------------------------------------|


Intro riff
e|------42---4-2---2-4-2-------2--2-----------|
B|-02------2-----2-------2---02--2--2--454-0--|
G|--------------------------------------------|
D|--------------------------------------------|
A|--------------------------------------------|
E|--------------------------------------------|
Suggest correction
Give kudos to tab author, rate the tab!
1 2 3 4 5
comments
print report bad tab
guest
You may want to rate the tab now too:
select rating
Wanna post a correction for this tab? Suggest correction