Oops, an error
Loading. Please wait.

Girl Of My Dreams tab

16,122 views 51 this week
1 commentread comment
1 2 3 4 5
x 4
add to favorites
×
Save as Personal and add changes to this tab that will be seen only by you. Learn more ›
×
You can save this tab as Personal to edit and correct it or add notes. All changes will be seen only by you. Learn more »
launch autoscroll
font size
0
reset
how to read this tab
guitar tuner
edit
Autoscroll
slow
fast
+/-
esc
set tempo
stop
"Girls of My Dreams"-The Moffatts
Album: Chapter 1: New Beginning
Tabbed By:  John Culbert
E-mail: culbertt@hurontel.on.ca

Standard Tuning
E A D G B E
Played on Acoustic


/=Slide down
\=Slide up
h=hammer on
p=pull off
Intro x2
E----------------------------------------------------------------------
B----------------------------------------------------------------------
G--4h5-7-7--5h7p5/4-/2\4-0--0h2h4\5/4/2-0------------------------------
D-------------------------------------------0-0h2----------------------
A----------------------------------------------------------------------
E----------------------------------------------------------------------

            G           Am
You are the girl..of my dreams
      Em  D         C
In my heart, I believe
            G           Am
You are the girl of my dreams
   Em D       C
Baby,   of my dreams

---Verse 1
        G       Am
All alone in my room
C                    G
Wishin that you were here
G                 Am
Without you in my arms
    C                       G   D/F#
I'm holdin back all of the tears
        Em         D
Without you in my life,
Am              G      Fill 1
I'll never be satisfied

--Chorus
            G           Am
You are the girl..of my dreams
      Em  D         C
In my heart, I believe
            G           Am
You are the girl of my dreams
   Em D       C
Baby,   of my dreams

---Verse 2
     G      Am
Sometimes I feel
   C                    G
I coulda been better to you
      G          Am
All I want..is a chance
   C                     G      D/F#
To prove that my love is true
        Em         D
Without you in my life,
Am              G      Fill 1
I'll never be satisfied

--Chorus

--Solo (Repeat Intro)

---Bridge
Am              G       C
Baby, let's go back in time,
                                Am
to when our hearts would shine
                G    C
And I could hold you tight..
                D
in my dreams at night..
--Chorus
--Chorus w/Intro
--Chorus w/Intro
--Chorus Fades


Fill 1
E----------------3------------------------------------------------------
B----------------------------------------------------------------------
G----------0------------------------------------------------------------
D------2----------------------------------------------------------------
A----3------------------------------------------------------------------
E----------------------------------------------------------------------
I think that's perfect. Any updates, just mail me. JC>



            
            
Suggest correction
Creating personal tab
Creating personal tab
You can edit any tab online and save it as your Personal.

You can edit, replace or remove any tab part or add personal notes – all changes will be seen only by you.

Personal tabs can be accessed anytime from any device, even offline.
Learn more »
comments
print report bad tab
1 comment total.
0 reply
eccofuture 10 Jan 03, 2003 07:00 PM

This is how i think the solo should go:

E--------------------------------------
B--------------------------------------
G-3/4-5-7-7--0-5/7-5-4-2-2/4-0-2-4-4/5-
D--------------------------------------

E--------------------------------------
B--------------------------------------
G-4-2----------------------------------
D-----0-0h2----------------------------

guest
Wanna post a correction for this tab? Suggest correction