Oops, an error
Loading. Please wait.

All Of Your Toys bass

133 views 1 this week
no commentswrite comment
1 2 3 4 5
2 more votes to show rating
add to favorites
×
Save as Personal and add changes to this tab that will be seen only by you. Learn more ›
×
You can save this tab as Personal to edit and correct it or add notes. All changes will be seen only by you. Learn more »
launch autoscroll
font size
0
reset
guitar tuner
edit
Autoscroll
slow
fast
+/-
esc
set tempo
stop
Author
Difficulty
Tabbed by: 6METAL6BASSIST6
E-mail: petergriffinav@gmail.com

Tuning: EADG

0:11

G|8-|
D|--|
A|--|
E|--|

G|10----10----9-----9-----7-----7-----5-----5---7-8-----8-----6-----6-----5-----5-----3-----3---4-|
D|------------------------------------------------------------------------------------------------|
A|------------------------------------------------------------------------------------------------|
E|------------------------------------------------------------------------------------------------|

G|5-----5-----5-----5-----------------------5-----|
D|----------------------5-------------------------|
A|------------------------3-----3-----3---------3-|
E|------------------------------------------------|

0:22

G|------------------------------------------------------------------------------------------------|
D|3-----3-----------3-----------------------------3-----3-----------3-----------------------------|
A|------------3-----------4-----4-----------4-----------------3---------3-4-----4-----------------|
E|------------------------------------4---------4-------------------------------------4-----4---4-|

G|------------------------------------5-----5-----------------5-----5-----|
D|----------------------------------5-----------5-----------5-----------5-|
A|4-----4-----------4-----3-----3-----------------3-----3-----------------|
E|------------4---------4-------------------------------------------------|

G|------------------------------------------------------------------------------------------------|
D|3-----3-----------3-----------------------------3-----3-----------3-----------------------------|
A|------------3-----------4-----4-----------4-----------------3-----------4-----4-----------------|
E|------------------------------------4---------4-------------------------------------4-----4-----|

G|------------------------------------5-----5-----------------5-----5-----|
D|----------------------------------5-----------5-----------5-------------|
A|4-----4-----------4-----3-----3-----------------3-----3---------------3-|
E|------------4---------4-------------------------------------------------|

0:46

G|------------------------------------------------------------------------------------------------|
D|------3-----5-----7-----------------7-----5-----------3-----5-----7-----------------7-----5-----|
A|5-----------------------------4-----------------5-----------------------------4-----------------|
E|------------------------5-----------------------------------------------5-----------------------|

G|------------------------------------------------------------------------|
D|------3-----5-----7-----------------7-----5-----------3-----5-----7-----|
A|5-----------------------------4-----------------5-----------------------|
E|------------------------5-----------------------------------------------|

G|----------------------------------------------------------------------------------------------8-|
D|------------------------------------------------------------------------------------------------|
A|7-----7-----7-----7-----5-----5-----5-----5-----7-----------------------------------------------|
E|------------------------------------------------------------------------------------------------|

1:06

G|10----10----9-----9-----7-----7-----5-----5---7-8-----8-----6-----6-----5-----5-----3-----3-----|
D|------------------------------------------------------------------------------------------------|
A|------------------------------------------------------------------------------------------------|
E|------------------------------------------------------------------------------------------------|

G|5-----5-----5-----5-----------------------5-----|
D|----------------------5-------------------------|
A|------------------------3-----3-----3---------3-|
E|------------------------------------------------|

1:16

G|------------------------------------------------------------------------------------------------|
D|3-----3-----------3-----------------------------3-----3-----------3-----------------------------|
A|------------3---------3-4-----4-----------4-----------------3---------3-4-----4---------------2-|
E|------------------------------------4---------4-------------------------------------4-----4-----|

G|------------------------------------5-----5-----------------5-----5-----|
D|----------------------------------------------5-----------------------5-|
A|4-----4-----------4-----3-----3-----------------3-----3-----------------|
E|------------4---------4-------------------------------------------------|

G|------------------------------------------------------------------------------------------------|
D|3-----3-----------3-----------------------------3-----3-----------3-----------------------------|
A|------------3---------3-4-----4-----------4-----------------3---------3-4-----4-----------------|
E|------------------------------------4---------4-------------------------------------4-----4---4-|

G|------------------------------------5-----5-----------------5-----5-----|
D|----------------------------------5-----------5-----------5-------------|
A|4-----4-----------4-----3-----3-----------------3-----3---------------3-|
E|------------4---------4-------------------------------------------------|

1:41

G|------------------------------------------------------------------------------------------------|
D|------3-----5-----7-----------------7-----5-----------3-----5-----7-----------------7-----5-----|
A|5-----------------------------4-----------------5-----------------------------4-----------------|
E|------------------------5-----------------------------------------------5-----------------------|

G|------------------------------------------------------------------------------------------------|
D|------3-----5-----7-----------------7-----5-----------3-----5-----7-----------------------------|
A|5-----------------------------4-----------------5-----------------------7-----7-----7-----7-----|
E|------------------------5-----------------------------------------------------------------------|

G|------------------------------------------------------------------------------------------------|
D|------------------------------------------------------------------------------------------------|
A|5-----5-----5-----5-----7-----------------------------------------------------------------------|
E|------------------------------------------------------------------------------------------------|

2:02

G|--------9-----------9-----------9-----------9-----------9-----------9-----------9-----------9---|
D|----9-----------9-----------9-----------9-----------9-----------9-----------9-----------9-------|
A|7-----------7-----------7-----------7-----------7-----------7-----------7-----------7-----------|
E|------------------------------------------------------------------------------------------------|

G|--------9-----------9-----------9-----------9-----------9-----------9---|
D|----9-----------9-----------9-----------9-----------9-----------9-------|
A|7-----------7-----------7-----------7-----------7-----------7-----------|
E|------------------------------------------------------------------------|

G|10----10----9-----9-----7-----7-----5-----5---7-8-----8-----6-----6-----5-----5-----3-----3---4-|
D|------------------------------------------------------------------------------------------------|
A|------------------------------------------------------------------------------------------------|
E|------------------------------------------------------------------------------------------------|

G|5-----5-----5-----5-----------------------5-----|
D|----------------------5-------------------------|
A|------------------------3-----3-----3-----------|
E|------------------------------------------------|

2:26

G|------------------------------------------------------------------------------------------------|
D|3-----3-----------3-----------------------------3-----3-----------3-----------------------------|
A|------------3-----------4-----4-----------4---4-------------3-----------4-----4-----------4-----|
E|------------------------------------4-----------------------------------------------4-----------|

G|------------------------------------------------------------5-----5-----------------5-----5-----|
D|3-----3-----------3---------------------------------------5-----------5-----------5-----------5-|
A|------------3-----------4-----4-----------4-----3-----3-----------------3-----3-----------------|
E|------------------------------------4---------4-------------------------------------------------|

2:40

G|------------10----------------------------------------------10----------------------------------|
D|------10----------10----11----10----8-----6-----------10----------10----11----10----8-----6-----| x4  to
A|8-----------------------------------------------8-----------------------------------------------| fadeout.
E|------------------------------------------------------------------------------------------------|
Suggest correction
Creating personal tab
Creating personal tab
You can edit any tab online and save it as your Personal.

You can edit, replace or remove any tab part or add personal notes – all changes will be seen only by you.

Personal tabs can be accessed anytime from any device, even offline.
Learn more »
Give kudos to tab author, rate the tab!
1 2 3 4 5
comments
print report bad tab
guest
You may want to rate the tab now too:
select rating
Wanna post a correction for this tab? Suggest correction