Oops, an error
Loading. Please wait.

Angel Band Bass Tab

25 views 1 this week
no commentswrite comment
1 2 3 4 5
3 more votes to show rating
add to favorites
launch autoscroll
font size
0
reset
guitar tuner
Autoscroll
slow
fast
+/-
esc
set tempo
stop
Help us to improve Ultimate-Guitar.com Take our survey!
×
Author
Difficulty
novice
Tabbed by: 6METAL6BASSIST6
E-mail: petergriffinav@gmail.com

Tuning: EADG

G|------------------------------------------------------------------------|
D|------------------------------------------------------------------------|
A|------------------------------------------------------------------2-----|
E|------------------------------------------------------3-----5-----------|

0:07

G|------------------------------------------------------------------------|
D|------------------------------2-----3-----------------------------5-----|
A|3-----------------3---------5-----------------------5-3-----------------|
E|------------------------------------------------------------------------|

G|------------------------------------------------------------------------|
D|------------2---3-5-----------5---------------------------------5-5-----|
A|3-----------------------------------3-----------------3-----------------|
E|------------------------------------------------------------------------|

0:20

G|------------------------------------------------------------------------|
D|------------------------------2-----3-----------------------------5-----|
A|3-----------------3-----5---------------------------5-3-----------------|
E|------------------------------------------------------------------------|

G|------------------------------------------------------------------------|
D|------------2---3-5-----------5---------------------5-------------2-----|
A|3-----------------------------------3-----------------3-----------------|
E|------------------------------------------------------------------------|

0:34

G|------------------------------------------------------5-----------------|
D|5-----------------5-----------5-----------------5-----------------2---3-|
A|----------------5-------------------3-----------------------------------|
E|------------------------------------------------------------------------|

G|------------------------------------------------------------------------|
D|5-----------------5-----------5---------------------5-------------2-----|
A|------------5-----------------------3-----------------3-----5-----------|
E|------------------------------------------------------------------------|

0:45

G|------------------------------------------------------------------------|
D|3-----------------3-----------3-----------------------------------------|
A|----------------------------------5-3-----------2-----------------------|
E|------------------------------------------------------5-----------------|

G|------------------------------------------------------------------------|
D|------------2---3-5-----------5---------------------5-------------2-----|
A|3-----------------------------------3-----------------3-----5-----------|
E|------------------------------------------------------------------------|

0:58

G|------------------------------------------------------------------------|
D|3-----------------3-----------3-----------------------------------------|
A|----------------------------------5-3-----------3-----------------------|
E|------------------------------------------------------5-----------------|

G|------------------------------------------------------------------------|
D|------------2---3-5-----------5-----------------------------------------|
A|3-----------------------------------3---------------3-------------2-----|
E|------------------------------------------------------3-----5-----------|

1:11

G|------------------------------------------------------------------------|
D|------------------------------2-----3-----------------------------5-----|
A|3-----------------3---------5-------------------------3-----------------|
E|------------------------------------------------------------------------|

G|------------------------------------------------------5-----------------|
D|------------2---3-5-----------5---------------------------------5-2-----|
A|3-----------------------------------3-----------------------------------|
E|------------------------------------------------------------------------|

1:23

G|------------------------------------------------------------------------|
D|----------------5-------------2-----3-----------------------------------|
A|3-----------------3-----5---------------------------5-3-----------------|
E|------------------------------------------------------------------------|

G|------------------------------------------------------------------------|
D|------------2---3-5---------------------------------5-------------2---3-|
A|3---------------------------------3-3-----------------3-----------------|
E|------------------------------------------------------------------------|

1:36

G|------------------------------------------------------------------------|
D|5-----------------5-----------5---------------------5-----------2-3---4-|
A|----------------5-------------------3-----------------3-----------------|
E|------------------------------------------------------------------------|

G|------------------------------------------------------------------------|
D|5-----------------5-----------5---------------------5-------------2-----|
A|----------------5-----------------3-3-----------------3-----5-----------|
E|------------------------------------------------------------------------|

1:49

G|------------------------------------------------------------------------|
D|3-----------------3-----------2-----------------------------------------|
A|----------------------------------5-3-----------2-----------------------|
E|------------------------------------------------------5-----------------|

G|------------------------------------------------------------------------|
D|------------2---3-5-----------5-----------------5-----------------2-----|
A|3-----------------------------------3-----------------3-----5-----------|
E|------------------------------------------------------------------------|

2:02

G|------------------------------------------------------------------------|
D|3-----------------3---------3-------------------------------------------|
A|------------------------------5-----3-----------2-----------------------|
E|------------------------------------------------------5-----------------|

G|------------------------------------------------------------------------|
D|------------2---3-5-----------5---------------------------------2-3---4-|
A|3-----------------------------------3-----------------3-----------------|
E|------------------------------------------------------------------------|

2:14

G|------------------------------------------------------------------------|
D|5-----------------5-----------5---------------------5-----------2-3-----|
A|----------------5-------------------3-----------------3-----------------|
E|------------------------------------------------------------------------|

G|------------------------------------------------------5-----------------|
D|5-----------------5-----------5---------------------5-------------2-----|
A|----------------5-------------------3-----------------------5-----------|
E|------------------------------------------------------------------------|

2:27

G|------------------------------------------------------------------------|
D|3-----------------3---------3-------------------------------------------|
A|------------------------------5-----3-----------2-----------------------|
E|------------------------------------------------------5-----------------|

G|------------------------------------------------------------------------|
D|------------2-----5---------------5-------------------------------2-----|
A|3-----3-----------------------------3---------3-3-----3-----5-----------|
E|------------------------------------------------------------------------|

2:40

G|------------------------------------------------------------------------|
D|3-----------3-----3-----------3-----------------------------------------|
A|----------------------------------5-3-----------3-----------------------|
E|------------------------------------------------------5-----------------|

G|------------------------------------------------------------------------|
D|------------2---3-5---------------5-------------------------2-----3-----|
A|3-----------------------------------3---------------3-3-----------------|
E|------------------------------------------------------------------------|

2:53

G|------------------------------------------------------------------------|
D|5-----------------5-----------5---------------------5-------2-----3-----|
A|----------------5-----------------3-3-----------------3-----------------|
E|------------------------------------------------------------------------|

G|------------------------------------------------------------------------|
D|5-----------------5-----------5-----------------5-----------------2-----|
A|----------------5-----------------3-3-----------------3-----5-----------|
E|------------------------------------------------------------------------|

3:06

G|------------------------------------------------------------------------|
D|3-----------------3-----------3-----------------------------------------|
A|----------------------------------5-3-----------3-----------------------|
E|------------------------------------------------------5-----------------|

G|------------------------------------------------------5-----------------------|
D|------------2---3-5-----------5---------------------5-------------2-----3-----| fades out here.
A|3-----------------------------------3-----------------------5-----------------|
E|------------------------------------------------------------------------------|
Suggest correction
Give kudos to tab author, rate the tab!
1 2 3 4 5
comments
print report bad tab
guest
You may want to rate the tab now too:
select rating
Wanna post a correction for this tab? Suggest correction