Oops, an error
Loading. Please wait.

Angel Band bass

85 views 1 this week
no commentswrite comment
1 2 3 4 5
3 more votes to show rating
add to favorites
×
Save as Personal and add changes to this tab that will be seen only by you. Learn more ›
×
You can save this tab as Personal to edit and correct it or add notes. All changes will be seen only by you. Learn more »
launch autoscroll
font size
0
reset
guitar tuner
edit
Autoscroll
slow
fast
+/-
esc
set tempo
stop
Author
Difficulty
Tabbed by: 6METAL6BASSIST6
E-mail: petergriffinav@gmail.com

Tuning: EADG

Re-tabbed.

G|------------------------------------------------------------------------|
D|------------------------------------------------------------------------|
A|------------------------------------------------------------------2-----|
E|------------------------------------------------------3-----5-----------|

0:07

G|------------------------------------------------------------------------|
D|------------------------------2-----3-----------------------------5-----|
A|3-----------------3---------5-----------------------5-3-----------------|
E|------------------------------------------------------------------------|

G|------------------------------------------------------------------------|
D|------------2---3-5-----------5-----------------------------------5-----|
A|3-----------------------------------3-----------------3-----------------|
E|----------------------------------------------------------------3-------|

0:20

G|------------------------------------------------------------------------|
D|------------------------------2-----3-----------------------------5-----|
A|3-----------------3-----5---------------------------5-3-----------------|
E|------------------------------------------------------------------------|

G|------------------------------------------------------------------------|
D|------------2---3-5-----------5---------------------5-------------2---3-|
A|3-----------------------------------3-----------------3-----------------|
E|------------------------------------------------------------------------|

0:34

G|------------------------------------------------------5-----------------|
D|5-----------------5-----------5-----------------5-----------------2---3-|
A|----------------5-------------------3-----------------------------------|
E|------------------------------------------------------------------------|

G|------------------------------------------------------------------------|
D|5-----------------5-----------5---------------------5-------------2-----|
A|------------5-----------------------3-----------------3-----5-----------|
E|------------------------------------------------------------------------|

0:45

G|------------------------------------------------------------------------|
D|3-----------------3-----------3-----------------------------------------|
A|----------------------------------5-3-----------2-----------------------|
E|------------------------------------------------------5-----------------|

G|------------------------------------------------------------------------|
D|------------2---3-5-----------5---------------------5-------------2-----|
A|3-----------------------------------3-----------------3-----5-----------|
E|------------------------------------------------------------------------|

0:58

G|------------------------------------------------------------------------|
D|3-----------------3-----------2-----------------------------------------|
A|----------------------------------5-3-----------2-----------------------|
E|------------------------------------------------------5-----------------|

G|------------------------------------------------------------------------|
D|------------2---3-5-----------5-----------------------------------------|
A|3-----------------------------------3-----------------------------2-----|
E|----------------------------------------------------5-3-----5-----------|

1:11

G|------------------------------------------------------------------------|
D|------------------------------2-----3-----------------------------5-----|
A|3-----------------3---------5-------------------------3-----------------|
E|------------------------------------------------------------------------|

G|------------------------------------------------------5-----------------|
D|------------2---3-5-----------5---------------------------------5-2-----|
A|3-----------------------------------3-----------------------------------|
E|------------------------------------------------------------------------|

1:23

G|------------------------------------------------------------------------|
D|----------------5-------------2-----3-----------------------------------|
A|3-----------------3-----5---------------------------5-3-----------------|
E|------------------------------------------------------------------------|

G|------------------------------------------------------------------------|
D|------------2---3-5---------------------------------5-------------2---3-|
A|3---------------------------------5-3-----------------3-----------------|
E|------------------------------------------------------------------------|

1:36

G|------------------------------------------------------------------------|
D|5-----------------5-----------5---------------------5-------------2---3-|
A|----------------5-------------------3-----------------3---------5-------|
E|------------------------------------------------------------------------|

G|------------------------------------------------------------------------|
D|5-----------------5-----------5---------------------5-------------2-----|
A|----------------5-----------------5-3-----------------3-----5-----------|
E|------------------------------------------------------------------------|

1:49

G|------------------------------------------------------------------------|
D|3-----------------3-----------2-----------------------------------------|
A|----------------------------------5-3-----------2-----------------------|
E|------------------------------------------------------5-----------------|

G|------------------------------------------------------------------------|
D|------------2---3-5-----------5-----------------5-----------------2-----|
A|3-----------------------------------3-----------------3-----5-----------|
E|------------------------------------------------------------------------|

2:02

G|------------------------------------------------------------------------|
D|3-----------------3---------2-------------------------------------------|
A|------------------------------5-----3-----------2-----------------------|
E|------------------------------------------------------5-----------------|

G|------------------------------------------------------------------------|
D|------------2---3-5-----------5---------------------------------2-3---4-|
A|3-----------------------------------3-----------------3-----------------|
E|------------------------------------------------------------------------|

2:14

G|------------------------------------------------------------------------|
D|5-----------------5-----------5---------------------5-----------2-3-----|
A|----------------5-------------------3-----------------3-----------------|
E|------------------------------------------------------------------------|

G|------------------------------------------------------------------------|
D|5-----------------5-----------5---------------------5-------------2-----|
A|----------------5-------------------3-----------------3-----5-----------|
E|------------------------------------------------------------------------|

2:27

G|------------------------------------------------------------------------|
D|3-----------------3---------3-------------------------------------------|
A|------------------------------5-----3-----------2-----------------------|
E|------------------------------------------------------5-----------------|

G|------------------------------------------------------------------------|
D|------2-----3-----5---------------5-------------------------------2-----|
A|3-----------------------------------3---------3-3-----3-----5-----------|
E|------------------------------------------------------------------------|

2:40

G|------------------------------------------------------------------------|
D|3-----------------3-----------2-----------------------------------------|
A|----------------------------------5-3-----------2-----------------------|
E|------------------------------------------------------5-----------------|

G|------------------------------------------------------------------------|
D|------------2---3-5-----------------------------------------2-----3-----|
A|3---------------------------------5-3---------------3-3-----------------|
E|------------------------------------------------------------------------|

2:53

G|------------------------------------------------------------------------|
D|5-----------------5-----------5---------------------5-------2-----3-----|
A|----------------5-----------------5-3-----------------3-----------------|
E|------------------------------------------------------------------------|

G|------------------------------------------------------------------------|
D|5-----------------5-----------5-----------------5---2-------------2-----|
A|----------------5-----------------5-3-----------------3-----5-----------|
E|------------------------------------------------------------------------|

3:06

G|------------------------------------------------------------------------|
D|3-----------------3-----------2-----------------------------------------|
A|----------------------------------5-3-----------2-----------------------|
E|------------------------------------------------------5-----------------|

G|------------------------------------------------------------------------------|
D|------------2---3-5-----------5---------------------5-------------2-----3-----| fades out here.
A|3---------------------------------5-3-----------3-----3-----5-----------------|
E|------------------------------------------------------------------------------|

            
            
Suggest correction
Creating personal tab
Creating personal tab
You can edit any tab online and save it as your Personal.

You can edit, replace or remove any tab part or add personal notes – all changes will be seen only by you.

Personal tabs can be accessed anytime from any device, even offline.
Learn more »
Give kudos to tab author, rate the tab!
1 2 3 4 5
comments
print report bad tab
guest
You may want to rate the tab now too:
select rating
Wanna post a correction for this tab? Suggest correction