Oops, an error
Loading. Please wait.

As We Go Along bass

61 views 1 this week
no commentswrite comment
1 2 3 4 5
3 more votes to show rating
add to favorites
×
Save as Personal and add changes to this tab that will be seen only by you. Learn more ›
×
You can save this tab as Personal to edit and correct it or add notes. All changes will be seen only by you. Learn more »
launch autoscroll
font size
0
reset
guitar tuner
edit
Autoscroll
slow
fast
+/-
esc
set tempo
stop
Author
Difficulty
Tabbed by: 6METAL6BASSIST6
E-mail: petergriffinav@gmail.com

Tuning: EADG

The bassline in The Monkees 50 version is much more clear than the original Head version.

0:16

G|--------------|
D|--------------|
A|--------------|
E|11--11-12--13-|

G|--------------------------------------------------------------|
D|-------------------------------------------------10--/-12--10-|
A|13--------------------10-13----13-----------------------------|
E|------------------13------------------------------------------|

G|--------------------------------------------------------------|
D|--------------------------------------------------------------|
A|13--------------------10-13----13--------------------10-13----|
E|------------------13-----------------------------13-----------|

G|-----------------------------------------------/-15--/-15----|
D|-------------------------------------------------------------|
A|13--------------------10-13----13----------------------------|
E|------------------13-----------------------------------------|

0:33

G|15--------------/-15--------------------------/-15-----------|
D|----------------------/-15--------------------------/-12--10-|
A|------------------------------13----13-----------------------|
E|-------------------------------------------------------------|

G|----------------/-15---------------------------/-15--/-15----|
D|----------------------/-15\13--------------------------------|
A|13-----------------------------13----------------------------|
E|-------------------------------------------------------------|

G|15----------------------------15----------------------15----|
D|------------------------------------------------------------|
A|------------------------------------------------------------|
E|------------------------------------------------11----------|

0:50

G|-------------------------------------------------------------|
D|----------------/-15\13------------------------/-15----15----|
A|13-----------------------13----13----------------------------|
E|-------------------------------------------------------------|

G|---------------------------------------------------------------------|
D|---------------------------------------------------------------------|
A|13--------------13-13----13----13---------------------------10-13----|
E|-------------------------------------------------11--12-13---------13|

G|------------------------------------------15----------15----15-----------15-----------------------|
D|----------------------------------------------------------15-----------15-------------------------|
A|13----------------13----13----------13---------------------------------------13-13----------13----|
E|----------------------13--------------------------------------------------------------------------|

1:09

G|------------------------------------------------------------|
D|--------------/-15------------------------------------------|
A|13----------------13----------13----13----------13----13----|
E|------------------------------------------------------------|

G|-------------------------------------------------------------------|
D|----------------------------------------------/-15--/-15\13--------|
A|13----------13----13----13----13----------13-----------------13----|
E|-------------------------------------------------------------------|

1:20

G|------------------------------------------------------|
D|----------------------------------------------------15|
A|13----------------13----13----13----13----13----13----|
E|------------------------------------------------------|

G|15----15----15----------------------------------------|
D|----------15----15------------------------------------|
A|------------------13----13----13----13----------13----|
E|----------------------------------13------------------|

1:30

G|-------------------------------------15----15----15----15-----------------|
D|-----------------------------------15------------------------------14--15-|
A|13--------13-13----13----13----13-----------------------------------------|
E|-----------------13-------------------------------------------------------|

G|---------------------------------------15--15-15----15----15----------15----|
D|-------------------------------------15-----------15------------------------|
A|13--------13-13----13--13-13--13-13-----------------------------------------|
E|----------------------------------------------------------------------------|

1:43

G|------------------------------------------------------------------------|
D|------------------------------------------------------------------------|
A|13----------------------------------------------------------------------|
E|------------------------------------------------------------------------|

G|-------------------------------------------------------------------------|
D|----------------------------------------------------------/-15\13--------|
A|13----------------13----------------13----------------13-----------13----|
E|-------------------------------------------------------------------------|

1:55

G|----------------/-15-----------------------------------15-----|
D|----------------------/-15\13--------13h15-\------------------|
A|13-----------------------------13-----------------------------|
E|--------------------------------------------------------------|

G|15--------------/-15------------------------------------------|
D|----------------------/-15--------------------/-15\13---------|
A|------------------------------13-----------------------13-----|
E|-----------------------------------------------------------13-|

2:06

G|------------------------------------------------------------|
D|------------------------------------------------------------|
A|13----------------6---/-13----13----13----13----6---/-12----|
E|------------------------------------------------------------|

G|------------------------------------------------------------------|
D|------------------------------------------------------------------|
A|13----------------6---/-13----13----------------6/8---13----13----|
E|------------------------------------------------------------------|

G|----------------------------------------------------------------------------------------------|
D|------------15----------------------------------------15-14-13--------------------------------|
A|13----------------15--13------8---/-13------------------------15--15--13----13----------13----|
E|----------------------------------------------------------------------------------------------|

2:26

G|------------------------------------------------------------|
D|------------------------------------------------------------|
A|13----------------------------------------------------------|
E|------------------------------------------------------------|

G|------------------------------------------15----------------------|
D|----------------------------------------------/-15--/-15----------|
A|------------------------------------------------------------13----|
E|------------------------------------------------------------------|

2:36

G|------------------13h15-------15----------------------13h|
D|------------15--------------------------------------15---|
A|13----------------------------------13-------------------|
E|---------------------------------------------------------|

G|15----------------------------------15---------------------|
D|----/-15--/-15--------------------15----/-15\13--/15\13----|
A|------------------13---------------------------------------|
E|-----------------------------------------------------------|

2:46

G|-----------------------13h15----15----15----15----15--13h15----15----15----|
D|----------------13h15---------------15-------------------------------------|
A|13----------13-------------------------------------------------------------|
E|---------------------------------------------------------------------------|

G|------------------------------------------------------------------------|
D|------------------------------------------------------------------------|
A|13------13--13--13--------13--13--13------------------8---/-13----13----|
E|------------------------------------------------------------------------|

2:58

G|------------------------------------------------------------------------|
D|------------------------------------------------------------------------|
A|13----------------------------------------------------------------------|
E|------------------------------------------------------------------------|

G|--------------------------------------------------------------------------|
D|--------------------------------------------------------------------------|
A|------------------------------------13----------------13----------13-13-13|
E|--------------------------------------------------------------------------|

3:10

G|------------------------------------------------------------|
D|------------------------------------------------------------|
A|13----------------------------------------------------------|
E|------------------------------------------------------------|

G|------------------------------------------------------------|
D|------------------------------------------------------------|
A|------------------------------------------------------------|
E|------------------------------------------------------------|

3:21

G|-------------------------------------------------------------|
D|-------------------------------------------------------------|
A|13--------------------------13-13----------13----13--/-15----|
E|-------------------------------------------------------------|

G|-----------------------------------------------------------------|
D|-----------------------------------------------------------------|
A|13----13----13----13--13-13--13-13----13----13-------------------|
E|--------------------------------------------------6---8/11--13-13|

3:31

G|----------------------------------------------------------------|
D|----------------------------------------------------------------|
A|13----13----13----13----13----13----13----13---------11-11-12-12|
E|------------------------------------------------11-13-----------|

G|---------------------------------------------------------------------|
D|---------------------------------------------------------------------|
A|13----13----13---------11-11-12-12-13----13----13---------11-11-12-12|
E|------------------11-13------------------------------11-13-----------|

3:42

G|----------------/-15-15-15-15-----------------------15-14-13--------|
D|-----------------------------13-15--------------------------15-14-13|
A|13----13----13--------------------13----13----13--------------------|
E|--------------------------------------------------------------------|

G|------------------15-14-13--------------------------15-14-13--------------------------|
D|----------------15--------15-13-15--------------------------14-14-15------------------| fades out here.
A|13----13----13--------------------13----13----13--------------------13----13----13----|
E|--------------------------------------------------------------------------------------|

            
            
Suggest correction
Creating personal tab
Creating personal tab
You can edit any tab online and save it as your Personal.

You can edit, replace or remove any tab part or add personal notes – all changes will be seen only by you.

Personal tabs can be accessed anytime from any device, even offline.
Learn more »
Give kudos to tab author, rate the tab!
1 2 3 4 5
comments
print report bad tab
guest
You may want to rate the tab now too:
select rating
Wanna post a correction for this tab? Suggest correction