Oops, an error
Loading. Please wait.

Daydream Believer Bass Tab

version 1
version 1

Whole song

Interactive

14,752 views 39 this week
no commentswrite comment
1 2 3 4 5
excellent!
x 7
add to favorites
launch autoscroll
font size
0
reset
guitar tuner
Tab Pro tools
  • play this tab
  • loop segment
  • change instrument
  • show fretboard
  • metronome
×
Best way to learn
"Daydream Believer"
Autoscroll
slow
fast
+/-
esc
set tempo
stop
Contributor
Tabbed by Michael Oxner (moxner@nbnet.nb.ca)

[INTRO]
                               Oh, I could

  G        G        G        G
G:0-------|--------|--------|--------|
D:--------|0-------|--------|0-------|
A:--------|--------|--------|--------|
E:--------|--------|3-------|--------|

[VERSE]
  G               Am           Bm              C
  Hide 'neath the wings of the bluebird as she sings
      G           Em                A7        D7
  The six o'clock alarm would never ring

  G        Am       Bm       C        G        Em       A7       D7
G:0-------|2-------|4-------|5-------|0-------|--------|2-------|--------|
D:--------|--------|--------|--------|--------|2-------|--------|0-----4-|
A:--------|--------|--------|--------|--------|--------|--------|--------|
E:--------|--------|--------|--------|--------|--------|--------|--------|

            G            Am             Bm              C
  Whoops it rings, and I rise, wipe the sleep out of my eyes
     G       Em      A7       D7 G
  My shaving razor's cold and it stings

  G        Am       Bm       C        G   Em   A7  D7   G        G
G:0-----0-|2-----2-|4---0-4-|5---4-2-|0-----0-|2-------|0-0---0-|2-0-----|
D:----0---|----2---|--------|--------|----2---|----0-4-|----4---|----4-2-|
A:--------|--------|--------|--------|--------|--------|--------|--------|
E:--------|--------|--------|--------|--------|--------|--------|--------|

[CHORUS]
  C        D      G    Em   C        D      Em    C
  Cheer up sleepy Jean,     oh, what can it mean, to a
  G            C            G   Em       A7    D7
    Daydream believer and a   homecoming queen

  C   D    G   Em   C   D    Em  C    G        C        G   Em   A7       D7
G:--------|--------|--------|--------|0-0-0-0-|--------|0-0---0-|2-0-----|--------|
D:----0-0-|--------|----0-0-|2-2-----|--------|--------|----2---|----4-2-|0-------|
A:3-3-----|2-2-2-2-|3-3-----|----3-3-|--------|3-3-3-3-|--------|--------|--3-2-0-|
E:--------|--------|--------|--------|--------|--------|--------|--------|--------|

[VERSE]
  G                   Am      Bm                   C
  You once thought of me as a white knight on his steed
  G                Em          A7     D7
  Now you know how happy I can be

  G        Am       Bm       C        G        Em       A7       D7
G:0-------|2-------|4-------|5-------|0-------|--------|2-------|--------|
D:--------|--------|--------|--------|--------|2-------|--------|0---0-4-|
A:--------|--------|--------|--------|--------|--------|--------|--3-----|
E:--------|--------|--------|--------|--------|--------|--------|--------|

          G                    Am          Bm            C
  And our good times start and end without dollar one to spend
  G        Em   A7    D7     G
  How much baby do we really need?

  G        Am       Bm       C        G   Em   A7  D7   G        G
G:0-----0-|2-----2-|4---0-4-|5---4-2-|0-----0-|2-------|0-0---0-|2-0-----|
D:----0---|----2---|--------|--------|----2---|----0-4-|----4---|----4-2-|
A:--------|--------|--------|--------|--------|--------|--------|--------|
E:--------|--------|--------|--------|--------|--------|--------|--------|

[CHORUS] (x2)
  C        D      G    Em   C        D      Em    C
  Cheer up sleepy Jean,     oh, what can it mean, to a
  G            C            G   Em       A7    D7
    Daydream believer and a   homecoming queen

  C   D    G   Em   C   D    Em  C    G        C        G   Em   A7       D7
G:--------|--------|--------|--------|0-0-0-0-|--------|0-0---0-|2-0-----|--------|
D:----0-0-|--------|----0-0-|2-2-----|--------|--------|----2---|----4-2-|0-------|
A:3-3-----|2-2-2-2-|3-3-----|----3-3-|--------|3-3-3-3-|--------|--------|--3-2-0-|
E:--------|--------|--------|--------|--------|--------|--------|--------|--------|

[BRIDGE]
  G        G        G        G
G:0-------|--------|--------|--------|
D:--------|0-------|--------|0-------|
A:--------|--------|--------|--------|
E:--------|--------|3-------|--------|

[CHORUS] (REPEAT AND FADE)
  C        D      G    Em   C        D      Em    C
  Cheer up sleepy Jean,     oh, what can it mean, to a
  G            C            G   Em       A7    D7
    Daydream believer and a   homecoming queen

  C   D    G   Em   C   D    Em  C    G        C        G   Em   A7       D7
G:--------|--------|--------|--------|0-0-0-0-|--------|0-0---0-|2-2-2-2-|--------|
D:----0-0-|--------|----0-0-|2-2-----|--------|--------|----2---|--------|0-0-0-0-|
A:3-3-----|2-2-2-2-|3-3-----|----3-3-|--------|3-3-3-3-|--------|--------|--------|
E:--------|--------|--------|--------|--------|--------|--------|--------|--------|
comments
print report bad tab
I want to post or [tab]
guest
You may want to rate the tab now too:
select rating
Please do not post tabs as comments. Select "correction" instead!