Oops, an error
Loading. Please wait.

Daydream Believer Ukulele Chords

version 2
version 2

Whole song

Interactive

16 views 1 this week
1 commentread comment
1 2 3 4 5
2 more votes to show rating
add to favorites
launch autoscroll
font size
0
reset
transpose
0
reset
simplify chords
display chords
guitar tuner
Autoscroll
slow
fast
+/-
esc
set tempo
stop
Help us to improve Ultimate-Guitar.com Take our survey!
×
Author
Difficulty
novice
About this tab version
A ukulele tab with chords. Was this info helpful? Yes No
Chords used for the chorus:

   C   D   Bm  Em  G   A7  D7
A|-3---5---2---2---2---0---3---|
E|-0---2---2---3---3---0---2---|
C|-0---2---2---4---2---1---2---|
G|-0---2---4---0---0---0---2---|



[Intro]

   G               Gsus4           G               Gsus4
A|-2---2---2---2---3---3---3---3---2---2---2---2---3---3---3---3---|
E|-3---3---3---3---3---3---3---3---3---3---3---3---3---3---3---3---|
C|---2---2---2---2---2---2---2---2---2---2---2---2---2---2---2---2-|
G|-----------------------------------------------------------------|

[Verse]

   G               Am              Bm              C
A|-2---2---2---2---3---3---3---3---5---5---5---5---7---7---7---7---|
E|-3---3---3---3---5---5---5---5---7---7---7---7---8---8---8---8---|
C|---2---2---2---2---4---4---4---4---6---6---6---6---7---7---7---7-|
G|-----------------------------------------------------------------|
Oh, I could hide 'neath the wings of the bluebird as she sings

   G               Em              A7              D7
A|-2---2---2---2---2---2---2---2---0---0---0---0---3---3---3---3---|
E|-3---3---3---3---3---3---3---3---0---0---0---0---2---2---2---2---|
C|---2---2---2---2---4---4---4---4---1---1---1---1---2---2---2---2-|
G|-----------------------------------------------------------------|
The six-o-clock alarm would never ring

   G               Am              Bm              C
A|-2---2---2---2---3---3---3---3---5---5---5---5---7---7---7---7---|
E|-3---3---3---3---5---5---5---5---7---7---7---7---8---8---8---8---|
C|---2---2---2---2---4---4---4---4---6---6---6---6---7---7---7---7-|
G|-----------------------------------------------------------------|
But it rings and I rise wipe the sleep out of my eyes

   G       Em      A7      D7      G
A|-2---2---2---2---0---0---3---3---2---2---0---2---3---2---0-------|
E|-3---3---3---3---0---0---2---2---3---3---2---3---5---3---2---3---|
C|---2---2---4---4---1---1---2---2-----------------------------4---|
G|-----------------------------------------------------------------|
My shaving razor's cold and it stings

[Chorus]

C        D      Bm   Bm   C       D      Em   C
Cheer up sleepy Jean,     oh what can it mean to a
G          C              G          A7    D7
  daydream believer and a homecoming queen

[Verse]

   G               Am              Bm              C
A|-2---2---2---2---3---3---3---3---5---5---5---5---7---7---7---7---|
E|-3---3---3---3---5---5---5---5---7---7---7---7---8---8---8---8---|
C|---2---2---2---2---4---4---4---4---6---6---6---6---7---7---7---7-|
G|-----------------------------------------------------------------|
You once thought of me as a white knight on his steed

   G               Em              A7              D7
A|-2---2---2---2---2---2---2---2---0---0---0---0---3---3---3---3---|
E|-3---3---3---3---3---3---3---3---0---0---0---0---2---2---2---2---|
C|---2---2---2---2---4---4---4---4---1---1---1---1---2---2---2---2-|
G|-----------------------------------------------------------------|
Now you know how happy I can be

   G               Am              Bm              C
A|-2---2---2---2---3---3---3---3---5---5---5---5---7---7---7---7---|
E|-3---3---3---3---5---5---5---5---7---7---7---7---8---8---8---8---|
C|---2---2---2---2---4---4---4---4---6---6---6---6---7---7---7---7-|
G|-----------------------------------------------------------------|
Oh and our good times start and end without dollar one to spend

   G       Em      A7      D7      G
A|-2---2---2---2---0---0---3---3---2---2---0---2---3---2---0-------|
E|-3---3---3---3---0---0---2---2---3---3---2---3---5---3---2---3---|
C|---2---2---4---4---1---1---2---2-----------------------------4---|
G|-----------------------------------------------------------------|
But how much, baby, do we really need?

[Chorus]

C        D      Bm   Bm   C       D      Em   C
Cheer up sleepy Jean,     oh what can it mean to a
G          C              G          A7    D7
  daydream believer and a homecoming queen
C        D      Bm   Bm   C       D      Em   C
Cheer up sleepy Jean,     oh what can it mean to a
G          C              G          A7    D7
  daydream believer and a homecoming queen

[Instrumental]

   G               Gsus4           G               Gsus4
A|-2---2---2---2---3---3---3---3---2---2---2---2---3---3---3---3---|
E|-3---3---3---3---3---3---3---3---3---3---3---3---3---3---3---3---|
C|---2---2---2---2---2---2---2---2---2---2---2---2---2---2---2---2-|
G|-----------------------------------------------------------------|

[Outro]

C        D      Bm   Bm   C       D      Em   C
Cheer up sleepy Jean,     oh what can it mean to a
G          C              G          A7    D7
  daydream believer and a homecoming queen

Repeat Chorus and fade out or end on a G chord


Suggest correction
Give kudos to tab author, rate the tab!
1 2 3 4 5
comments
print report bad tab
1 comment total.
+1 reply
maguri [tm] 27,123 Nov 08, 2016 08:54 AM

Sounds nice, thank you!

guest
You may want to rate the tab now too:
select rating
Wanna post a correction for this tab? Suggest correction