Oops, an error
Loading. Please wait.

Dont Listen To Linda bass

version 1
version 1

Whole song

52 views 1 this week
no commentswrite comment
1 2 3 4 5
3 more votes to show rating
add to favorites
×
Save as Personal and add changes to this tab that will be seen only by you. Learn more ›
×
You can save this tab as Personal to edit and correct it or add notes. All changes will be seen only by you. Learn more »
launch autoscroll
font size
0
reset
guitar tuner
edit
Autoscroll
slow
fast
+/-
esc
set tempo
stop
Author
Difficulty
Tabbed by: 6METAL6BASSIST6
E-mail: petergriffinav@gmail.com

Tuning: 1/4 step down

First recorded Version.

Re-tabbed.

G|------------------------------------------------------------------------------------------------|
D|------------------------------------------------3-----------------------3-----------------------|
A|------------------------------------------------------------3-----------------------3-----------|
E|------------------------------------------------------------------------------------------------|

0:06

G|------------------------------------------------------------------------------------------------|
D|3-----------------------3-----------------------3-----------------------3-----------3-----4-----|
A|------------3-----------------------3-----------------------3---------------------3-------------|
E|------------------------------------------------------------------------------------------------|

G|------------------------------------------------------------------------------------------------|
D|5-----------------------5-----------------------------------5-----------------------------2-----|
A|------------5-----------------------5-----4-----3-----------------------3-----------5-----------|
E|------------------------------------------------------------------------------------------------|

0:17

G|------------------------------------------------------------------------------------------------|
D|3-----------------------3-----------------------3-----------------------------------------------|
A|------------3-----------------------3-----------------------5-----3-----1-----------1-----------|
E|------------------------------------------------------------------------------------------------|

G|------------------------------------------------------------------------------------------------|
D|3-----------------------3-----------2-----------------------5---------3-------------------------|
A|------------3-----------------------------5-----3-----------------------------------3-----------|
E|------------------------------------------------------------------------------------------------|

G|------------------------|
D|------------------------|
A|------------------------|
E|------------------------|

0:28

G|------------------------------------------------------------------------------------------------|
D|3-----------------------3-----------------------3-----------------------3-----------3-----4-----|
A|------------3-----------------------3-----------------------3---------------------3-------------|
E|------------------------------------------------------------------------------------------------|

G|------------------------------------------------------------------------------------------------|
D|5-----------------------5-----------------------------------5-----------------------------2-----|
A|------------5-----------------------5-----4-----3-----------------------3-----------5-----------|
E|------------------------------------------------------------------------------------------------|

0:40

G|------------------------------------------------------------------------------------------------|
D|3-----------------------3-----------------------3-----------------------------------------------|
A|------------3-----------------------3-----------------------5-----3-----1-----------1-----------|
E|------------------------------------------------------------------------------------------------|

G|------------------------------------------------------------------------------------------------|
D|3-----------------------3-----------2-----------------------------------3-----------------------|
A|------------3-----------------------------5-----3-----------3-----------------------5-----3-----|
E|------------------------------------------------------------------------------------------------|

0:50

G|------------------------3-----------2-----------------------------------------------------------|
D|------------3-----------------------------5-----3-----------------------3-----------2-----------|
A|1-----------------------------------------------------------3-----------------------------5-----|
E|------------------------------------------------------------------------------------------------|

G|------------------------------------------------------------------------------------------2-----|
D|------------5-----------------------------2-----3-----------3-----------3-----3-----5-----------|
A|3-----------------------3-----------5-----------------------------------------------------------|
E|------------------------------------------------------------------------------------------------|

1:02

G|3-----------------------3-----------2-----------------------------------------------------------|
D|------------3-----------------------------5-----3-----------------------3-----------3-----4-----|
A|------------------------------------------------------------3---------------------3-------------|
E|------------------------------------------------------------------------------------------------|

G|------------------------------------------------------------------------------------------------|
D|5-----------------------5-----------------------------------------------------------------------|
A|------------5-----------------------5-----------3-----------------------------------------------|
E|------------------------------------------------------------------------------------------------|

G|------------------------|
D|------------------10\---|
A|------------------------|
E|------------------------|

1:13

G|------------------------------------------------------------------------------------------------|
D|3-----------------------3-----------------------3-----------------------3-----------3-----4-----|
A|------------3-----------------------3-----------------------3---------------------3-------------|
E|------------------------------------------------------------------------------------------------|

G|------------------------------------------------------------------------------------------------|
D|5-----------------------5-----------------------------------5-----------------------------2-----|
A|------------5-----------------------5-----4-----3-----------------------3-----------5-----------|
E|------------------------------------------------------------------------------------------------|

1:25

G|------------------------------------------------------------------------------------------------|
D|3-----------------------3-----------------------3-----------------------------------------------|
A|------------3-----------------------3-----------------------5-----3-----1-----------1-----------|
E|------------------------------------------------------------------------------------------------|

G|------------------------------------------------------------------------------------------------|
D|3-----------------------3-----------2-----------------------5-----------3-----------0-----------|
A|------------3-----------------------------5-----3-----------------------------------------3-----|
E|------------------------------------------------------------------------------------------------|

1:36

G|------------------------3-----------2-----------------------------------------------------------|
D|------------3-----------------------------5-----3-----------------------3-----------2-----------|
A|1-----------------------------------------------------------3-----------------------------5-----|
E|------------------------------------------------------------------------------------------------|

G|------------------------------------------------------------------------------------------------|
D|------------5-----------------------------2-----3-----------------------3-----------0-----------|
A|3-----------------------3-----------5-----------------------3-----------------------------3-----|
E|------------------------------------------------------------------------------------------------|

1:47

G|------------------------3-----------2-----------------------------------------------------------|
D|------------3-----------------------------5-----3-----------------------3-----------3-----4-----|
A|1-----------------------------------------------------------3-----------------------------------|
E|------------------------------------------------------------------------------------------------|

G|------------------------------------------------------------------------------------------------|
D|5-----------------------5-----------------------------------------------------------------------|
A|------------5-----------------------5-----------3-----------------------------------------------|
E|------------------------------------------------------------------------------------------------|

G|------------------------|
D|------------------------|
A|------------------------|
E|------------------------|

1:59

G|------------------------------------------------------------------------------------------------|
D|3-----------------------3-----------------------3-----------------------3-----------3-----4-----|
A|------------3-----------------------3-----------------------3---------------------3-------------|
E|------------------------------------------------------------------------------------------------|

G|------------------------------------------------------------------------------------------------|
D|5-----------------------5-----------------------------------5-----------------------------2-----|
A|------------5-----------------------5-----4-----3-----------------------3-----------5-----------|
E|------------------------------------------------------------------------------------------------|

2:11

G|------------------------------------------------------------------------------------------------|
D|3-----------------------3-----------------------3-----------------------------------------------|
A|------------3-----------------------3-----------------------5-----3-----1-----------1-----------|
E|------------------------------------------------------------------------------------------------|

G|------------------------------------------------------------------------------------------------|
D|3-----------------------3-----------2-----------------------------------------------5-----------|
A|------------3-----------------------------5-----3-----------------------3-----------------------|
E|------------------------------------------------------------3-----------------------------------|

G|------------------------------------------|
D|3-----------------------------------------|
A|------------------------------3-----------|
E|------------------------------------1-----|

            
            
Suggest correction
Creating personal tab
Creating personal tab
You can edit any tab online and save it as your Personal.

You can edit, replace or remove any tab part or add personal notes – all changes will be seen only by you.

Personal tabs can be accessed anytime from any device, even offline.
Learn more »
Give kudos to tab author, rate the tab!
1 2 3 4 5
comments
print report bad tab
guest
You may want to rate the tab now too:
select rating
Wanna post a correction for this tab? Suggest correction