Oops, an error
Loading. Please wait.

Dream World Bass Tab

31 views 6 this week
no commentswrite comment
1 2 3 4 5
3 more votes to show rating
add to favorites
launch autoscroll
font size
0
reset
guitar tuner
Autoscroll
slow
fast
+/-
esc
set tempo
stop
Help us to improve Ultimate-Guitar.com Take our survey!
×
Author
Difficulty
novice
Tabbed by: 6METAL6BASSIST6
E-mail: petergriffinav@gmail.com

Tuning: EADG

G|----------------------------------------------------------------|
D|--------------------------------7---------------------/-7-------|
A|5-----------------------5---------------------------------------|
E|----------------------------------------------------------------|

G|----------------------------------------------------------------|
D|--------------------------------7-----------------------7-------|
A|5-----------------------5---------------------------------------|
E|----------------------------------------------------------------|

0:08

G|----------------------------------------------------------------|.
D|----------------------------------------------------------------|.
A|5-----------5---------------5---7-------5---7-----------5---7---|.
E|----5---7-----------5---7-----------7---------------7-----------|.
                                                                   .
G|----------------------------------------------------------------|.
D|----------------------------------------------------------------|.
A|7-------5---7-----------5---7---5-----------5---------------5---|.
E|----7---------------7---------------5---7-----------5---7-------|.
                                                                   . x2
G|----------------------------------------------------------------|.
D|----------------7---7-7-7---7-------------------7---7-7-7---7---|.
A|----------------------------------------------------------------|.
E|5-----------5-------------------5-----------5-------------------|.
                                                                   .
G|----------------------------------------------------------------|.
D|----------------7---7-7-7---7-----------------------------------|.
A|--------------------------------------------------------4-------|.
E|5-----------5-------------------5-------5-------7---------------|.

0:37

G|----------------------------------------------------------------|
D|----2---4-------------------------------------------------2-4---|
A|5---------------------------2-------4---5---2-------2---5-------|
E|------------2-------5-------------------------------------------|

G|----------------------------------------------------------------|
D|2---------------------------------------------------------------|
A|--------2-----------------------------------4-------5---5---5---|
E|----3-------0-------2---3---5-----------------------------------|

G|----------------------------------------------------------------|
D|----------------------------------------------------------------|
A|7-------5---7-----------5---7---7-------5---7-----------5---7---|
E|----7---------------7---------------7---------------7-----------|

G|----------------------------------------------------------------|
D|----------------------------------------------------------------|
A|5-----------5---------------5---------------------------4-------|
E|----5---7-----------5---7-------5-------5-------7---------------|

0:52

G|----------------------------------------------------------------|
D|----2---4-------------------------------------------------2-4---|
A|5---------------------------2-------4---5---2-------2---5-------|
E|------------2-------5-------------------------------------------|

G|----------------------------------------------------------------|
D|2-----------2-------2-------2-----------------------------------|
A|--------2-----------------------5-----------5---------------5---|
E|----3-------------------------------5---7-----------5---7-------|

G|----------------------------------------------------------------|
D|----------------------------------------------------------------|
A|7-------5---7-----------5---7---7-------5---7-----------5---7---|
E|----7---------------7---------------7---------------7-----------|

G|----------------------------------------------------------------|
D|--------------------------------7---7-7-7---7---7-7-7---7---7---|
A|5-----------5---------------5-----------------------------------|
E|----5---7-----------5---7---------------------------------------|

G|----------------------------------------------------------------|
D|--------------------------------7-----------------------7-------|
A|5-----------------------5---------------------------------------|
E|----------------------------------------------------------------|

G|----------------------------------------------------------------|
D|------------------------------/-7-----------------------7-------|
A|5-----------------------5---------------------------------------|
E|----------------------------------------------------------------|

1:13

G|----------------------------------------------------------------|
D|----------------------------------------------------------------|
A|5-----------5---------------5---7-------5---7-----------5---7---|
E|----5---7-----------5---7-----------7---------------7-----------|

G|----------------------------------------------------------------|
D|----------------------------------------------------------------|
A|7-------5---7-----------5---7---5-----------5---------------5---|
E|----7---------------7---------------5---7-----------5---7-------|

G|----------------------------------------------------------------|
D|----------------7---7-7-7---7-------------------7---7-7-7---7---|
A|----------------------------------------------------------------|
E|5-----------5-------------------5-----------5-------------------|

G|----------------------------------------------------------------|
D|----------------7---7-7-7---7-----------------------------------|
A|--------------------------------------------------------4-------|
E|5-----------5-------------------5-------5-------7---------------|

1:28

G|----------------------------------------------------------------|
D|----------------------------------------------------------------|
A|5-----------5---------------5---7-------5---7-----------5---7---|
E|----5---7-----------5---7-----------7---------------7-----------|

G|----------------------------------------------------------------|
D|----------------------------------------------------------------|
A|7-------5---7-----------5---7---5-----------5---------------5---|
E|----7---------------7---------------5---7-----------5---7-------|

G|----------------------------------------------------------------|
D|----------------7---7-7-7---7-------------------7---7-7-7-7-7---|
A|----------------------------------------------------------------|
E|5-----------5-------------------5-----------5-------------------|

G|----------------------------------------------------------------|
D|----------------7---7-7-7---7-----------------------------------|
A|--------------------------------------------------------4-------|
E|5-----------5-------------------5-------5-------7---------------|

1:43

G|----------------------------------------------------------------|
D|----2---4-------------------------------------------------2-4---|
A|5---------------------------2-------4---5---2-------2---5-------|
E|------------2-------5-------------------------------------------|

G|----------------------------------------------------------------|
D|2---------------------------------------------------------------|
A|--------2-------------------5---------------5---5-----------5---|
E|----3-------0-------5---------------5---7-----------5---7-------|

G|----------------------------------------------------------------|
D|----------------------------------------------------------------|
A|7-------5---7-----------5---7---7-------5---7-----------5---7---|
E|----7---------------7---------------7---------------7-----------|

G|----------------------------------------------------------------|
D|----------------------------------------------------------------|
A|5-----------5---------------5---------------------------4-------|
E|----5---7-----------5---7-------5-------5-------7---------------|

1:56

G|----------------------------------------------------------------|
D|----2---4-------------------------------------------------2-4---|
A|5---------------------------2-------4---5---2-------2---5-------|
E|------------2-------5-------------------------------------------|

G|----------------------------------------------------------------|
D|2-----------2-------2-------------------------------------------|
A|--------2---------------2---5---5-----------5---------------5---|
E|----3-------------------------------5---7-----------5---7-------|

G|----------------------------------------------------------------|
D|----------------------------------------------------------------|
A|7-------5---7-----------5---7---7-------5---7-----------5---7---|
E|----7---------------7---------------7---------------7-----------|

G|----------------------------------------------------------------|
D|--------------------------------7---7-7-7---7-/-7-7-7---7---7---|
A|5-----------5---------------5-----------------------------------|
E|----5---7-----------5---7---------------------------------------|

G|----------------------------------------------------------------|
D|--------------------------------7---------------------/-7-------|
A|5-----------------------5---------------------------------------|
E|----------------------------------------------------------------|

G|----------------------------------------------------------------|
D|--------------------------------7-------------------7---7---7---|
A|5-----------------------5---------------------------------------|
E|----------------------------------------------------------------|

2:18

G|----------------------------------------------------------------|
D|----------------------------------------------------------------|
A|5-----------5---------------5---7-------5---7-----------5---7---|
E|----5---7-----------5---7-----------7---------------7-----------|

G|----------------------------------------------------------------|
D|----------------------------------------------------------------|
A|7-------5---7-----------5---7---5-----------5---------------5---|
E|----7---------------7---------------5---7-----------5---7-------|

G|----------------------------------------------------------------|
D|----------------7---7-7-7---7-------------------7---7-7-7-7-7---|
A|----------------------------------------------------------------|
E|5-----------5-------------------5-----------5-------------------|

G|----------------------------------------------------------------|
D|----------------7---7-7-7-7-7-----------------------------------|
A|--------------------------------------------------------4-------|
E|5-----------5-------------------5-------5-------7---------------|

2:32

G|----------------------------------------------------------------|
D|----2---4---------------------------------------------------4---|
A|5---------------------------2-------4---5---2-------2---5-------|
E|------------2-------5-------------------------------------------|

G|----------------------------------------------------------------|
D|2---------------------------------------------------------------|
A|--------2-------------------5---------------5---5-----------5---|
E|----3-------0-------5---------------5---7-----------5---7-------|

G|----------------------------------------------------------------|
D|----------------------------------------------------------------|
A|7-------5---7-----------5---7---7-------5---7-----------5---7---|
E|----7---------------7---------------7---------------7-----------|

G|----------------------------------------------------------------|
D|----------------------------------------------------------------|
A|5-----------5---------------5---------------------------4-------|
E|----5---7-----------5-----------5-------5-------7---------------|

2:47

G|----------------------------------------------------------------|
D|----2---4---------------------------------------------------4---|
A|5---------------------------2-------4---5---2-------2---5-------|
E|------------2-------5-------------------------------------------|

G|----------------------------------------------------------------|
D|2---------------------------------------------------------------|
A|--------2-------------------5---------------5---5-----------5---|
E|----3-------0-------5---------------5---7-----------5---7-------|

G|----------------------------------------------------------------|
D|----------------------------------------------------------------|
A|7-------5---7-----------5---7---7-------5---7-----------5---7---|
E|----7---------------7---------------7---------------7-----------|

G|----------------------------------------------------------------|
D|--------------------------------7---7-7-7---7-----------7-------|
A|5-----------5---------------5-----------------------------------|
E|----5---7-----------5---7---------------------------------------|

3:01

G|----------------------------------------------------------------|
D|--------------------------------7---------------------/-7-------| x3
A|5-----------------------5---------------------------------------|
E|----------------------------------------------------------------|

G|--------------------------------|
D|--------------------------------|
A|5-------------------------------|
E|--------------------------------|
Suggest correction
Give kudos to tab author, rate the tab!
1 2 3 4 5
comments
print report bad tab
guest
You may want to rate the tab now too:
select rating
Wanna post a correction for this tab? Suggest correction