Oops, an error
Loading. Please wait.

Early Morning Blues And Greens bass

70 views 1 this week
no commentswrite comment
1 2 3 4 5
3 more votes to show rating
add to favorites
×
Save as Personal and add changes to this tab that will be seen only by you. Learn more ›
×
You can save this tab as Personal to edit and correct it or add notes. All changes will be seen only by you. Learn more »
launch autoscroll
font size
0
reset
guitar tuner
edit
Autoscroll
slow
fast
+/-
esc
set tempo
stop
Author
Difficulty
Tabbed by: 6METAL6BASSIST6
E-mail: petergriffinav@gmail.com

Tuning: 1/4 step down.

G|------------|
D|------------|
A|1-------2---|
E|------------|

G|----------------------------------------------------------------|
D|----------------------------------------------------------------| x3
A|3-------3-----------1-----------3-------3-----------1-----------|
E|----------------3-----------3-------------------3-----------3---|

G|----------------------------------------------------------------|
D|----------------------------------------------------------------|
A|3-------3-----------1-----------3-------3-----------3-------2---|
E|----------------3-----------3-------------------3---------------|

0:15

G|----------------------------------------------------------------|
D|----------------------------------------------------------------|
A|3-------3-----------1-----------3-------3-----------3-------4---|
E|----------------3-----------3-------------------3---------------|

G|----------------------------------------------------------------|
D|----------------------------------------------------------------|
A|5-------5-----------3-----------5-------5-----------3-----------|
E|----------------5-----------5-------------------5-----------5---|

G|----------------------------------------------------------------|
D|----------------------------------------------------------------|
A|5-------5-----------3-----------5-------5-----------3-------5---|
E|----------------5-----------5-------------------5---------------|

G|----------------------------------------------------------------|
D|----------------------------------------------------------------|
A|3-------3-----------1-----------3-------3-----------1-------3---|
E|----------------3-----------3-------------------3---------------|

0:28

G|----------------------------------------------------------------|
D|----------------------------------------------------------------|
A|3-------3-----------1-----------3-------3-----------1-------3---|
E|----------------3-----------3-------------------3---------------|

G|----------------------------------------------------------------|
D|------------------------------------------------------------3---|
A|5-------5-----------3-----------5-------5-----------3-----------|
E|----------------5-----------5-------------------5---------------|

G|----------------------------------------------------------------|
D|----------------------------------------------------------------|
A|5-------5-----------3-----------5-------5-----------3-------5---|
E|----------------5-----------5-------------------5---------------|

G|----------------------------------------------------------------|
D|------------------------------------------------------------1---|
A|3-------3-----------1-----------3-------3-----------1---3-------|
E|----------------3-----------3-------------------3---------------|

0:42

G|----------------------------------------------------------------|
D|3-------3-----------1-----------3-------3-----------1-------3-/-|
A|----------------3-----------3-------------------3---------------|
E|----------------------------------------------------------------|

G|----------------------------------------------------------------|
D|5-------5-----------3---------/-5-------5-----------3---------/-|
A|----------------5-----------5-------------------5-----------5---|
E|----------------------------------------------------------------|

G|----------------------------------------------------------------|
D|5-------5-----------3---------/-5-------5-----------3-------5---|
A|----------------5-----------5-------------------5---------------|
E|----------------------------------------------------------------|

G|----------------------------------------------------------------|
D|3-------3-----------1-------2---3-------3-------1---0-----------|
A|----------------3-----------------------------------------------|
E|----------------------------------------------------------------|

0:56

G|----------------------------------------------------------------|
D|----------------------------------------------------------------|
A|3-------3-----------1-----------3-------3-----------1-------3---|
E|----------------3-----------3-------------------3---------------|

G|----------------------------------------------------------------|
D|----------------------------------------------------------------|
A|5-------5-----------3-----------5-------5-----------3-----------|
E|----------------5-----------5-------------------5-----------5---|

G|----------------------------------------------------------------|
D|----------------------------------------------------------------|
A|5-------5-----------3-----------5-------5-----------3-------5---|
E|----------------5-----------5-------------------5---------------|

G|----------------------------------------------------------------|
D|----------------------------------------------------------------|
A|3-------3-----------1-------2---3-------3-----------1-------2---|
E|----------------3-------------------------------3---------------|

1:09

G|----------------------------------------------------------------|
D|----------------------------------------------------------------| x3
A|3-------3-----------1-------2---3-------3-----------1-------2---|
E|----------------3-------------------------------3---------------|

G|----------------------------------------------------------------|
D|--------------------------------------------------------3---4---|
A|3-------3-----------1-------2---3-------3-------3---5-----------|
E|----------------3-----------------------------------------------|

1:23

G|----------------------------------------------------------------|
D|5-------5-----------3-----------5-------5-----------3-------5-/-|
A|----------------5-----------5-------------------5---------------|
E|----------------------------------------------------------------|

G|----------------------------------------------------------------|
D|7-------7-----------5-------------------------------5-------7---|
A|----------------7-----------7-------------------7---------------|
E|--------------------------------5-------5-----------------------|

G|----------------------------------------------------------------|
D|3-------3-----------1-----------3-------3-----------1-----------|
A|----------------3-----------3-------------------3-----------3---|
E|----------------------------------------------------------------|

G|----------------------------------------------------------------|
D|2-------2-----------------------2-------2-------------------2---|
A|----------------2---5-------2-------------------2---5-----------|
E|----------------------------------------------------------------|

1:36

G|----------------------------------------------------------------|
D|----------------------------------------------------------------|
A|3-------3-----------1-----------3-------3-----------3-------3---|
E|----------------3-----------3-------------------3---------------|

G|----------------------------------------------------------------|
D|----------------------------------------------------------------|
A|5-------5-----------3-----------5-------5-----------3-----------|
E|----------------5-----------5-------------------5-----------5---|

G|----------------------------------------------------------------|
D|----------------------------------------------------------------|
A|5-------5-----------3-----------5-------5-----------3-------5---|
E|----------------5-----------5-------------------5---------------|

G|----------------------------------------------------------------|
D|----------------------------------------------------------------|
A|3-------3-----------1-----------3-------3-----------1-------2---|
E|----------------3-----------3-------------------3---------------|

1:50

G|----------------------------------------------------------------|
D|----------------------------------------------------------------|
A|3-------3-----------1-------2---3-------3-----------1---3---3---|
E|----------------3-------------------------------3---------------|

G|----------------------------------------------------------------|
D|----------------------------------------------------------------|
A|5-------5-----------3-----------5-------5-----------3---3---4---|
E|----------------5-----------5-------------------5---------------|

G|----------------------------------------------------------------|
D|----------------------------------------------------------------|
A|5-------5-----------3-----------5-------5-----------3-------5---|
E|----------------5-----------5-------------------5---------------|

G|----------------------------------------------------------------|
D|----------------------------------------------------------------|
A|3-------3-----------1-------2---3-------3-----------1-------2---|
E|----------------3-------------------------------3---------------|

2:04

G|----------------------------------------------------------------|
D|----------------------------------------------------------------| x2
A|3-------3-----------1-------2---3-------3-----------1-------2---|
E|----------------3-------------------------------3---------------|

G|----------------------------------------------------------------|
D|----------------------------------------------------5-----------|
A|3-------3-----------1-------2---3-------3-------3---------------|
E|----------------3-------------------------------------------3---|

G|----------------------------------------------------------------|
D|--------------------5-------------------------------5-----------|
A|3-------3-------3---------------3-------3-------3---------------|
E|------------------------3---3-------------------------------3---|

2:17

G|----------------------------------------------------------------|
D|--------------------5-------------------------------5-----------|
A|3-------3-------3---------------3-------3-------3---------------|
E|------------------------3---3-------------------------------3---|

G|----------------------------------------------------------------|
D|--------------------5-------------------------------5-----------|
A|3-------3-------3---------------3-------3-------3---------------|
E|----------------------------3-------------------------------3---|

G|----------------------------------------------------5---3-------|
D|--------------------5---------------------------------------5---|
A|3-------3-------3---------------3-------3-------3---------------|
E|----------------------------3-----------------------------------|

G|--------------------5---3---------------------------5---3-----------|
D|----------------------------5-------------------------------5-------| fades out here.
A|3-------3---3-------------------3-------3---3-------------------3---|
E|--------------------------------------------------------------------|

            
            
Suggest correction
Creating personal tab
Creating personal tab
You can edit any tab online and save it as your Personal.

You can edit, replace or remove any tab part or add personal notes – all changes will be seen only by you.

Personal tabs can be accessed anytime from any device, even offline.
Learn more »
Give kudos to tab author, rate the tab!
1 2 3 4 5
comments
print report bad tab
guest
You may want to rate the tab now too:
select rating
Wanna post a correction for this tab? Suggest correction