Oops, an error
Loading. Please wait.

French Song bass

79 views 1 this week
no commentswrite comment
1 2 3 4 5
3 more votes to show rating
add to favorites
×
Save as Personal and add changes to this tab that will be seen only by you. Learn more ›
×
You can save this tab as Personal to edit and correct it or add notes. All changes will be seen only by you. Learn more »
launch autoscroll
font size
0
reset
guitar tuner
edit
Autoscroll
slow
fast
+/-
esc
set tempo
stop
Tabbed by: 6METAL6BASSIST6
E-mail: petergriffinav@gmail.com

Tuning: EADG

Re-tabbed.

G|----------------------------------------------------------------|
D|----------------------------------------------------------------| x2
A|7-----------7-----------7---------------------------------------|
E|----------------------------------------------------------------|

0:10

G|----------------------------------------------------------------|
D|----------------------------------------------------------------|
A|----------------------------------------------------------------|
E|5-----------5---5---------------7-----------7---7---------------|

G|----------------------------------------------------------------|
D|----------------------------------------------------------------|
A|7-----------7---7-----------7---7-----------7---7---7-------7---|
E|----------------------------------------------------------------|

G|----------------------------------------------------------------|
D|----------------------------------------------------------------|
A|----------------------------------------------------------------|
E|5-----------5---5---------------7-----------7---7-----------7---|

G|----------------------------------------------------------------|
D|----------------------------6---7-------------------------------|
A|7-----------7---7---------------------------7-------------------|
E|------------------------------------------------5-----------5---|

G|----------------------------------------------------------------|
D|----------------9-----------------------------------------------|
A|------------9---------------9-----------------------------------|
E|7-------------------------------7-------------------------------|

0:30

G|----------------------------------------------------7-----------|
D|------------------------------------------/-9---------------9---|
A|7-----------7---7-----------7---7-------------------------------|
E|----------------------------------------------------------------|

G|----------------------------------------------------7-------9---|
D|------------------------------------------/-9-------------------|
A|7-----------7---7-----------7---7-------------------------------|
E|----------------------------------------------------------------|

G|----------------------------------------------------7-----------|
D|------------------------------------------/-9---------------9---|
A|7-----------7---7-----------7---7-------------------------------|
E|----------------------------------------------------------------|

G|----------------------------------------------------------------|
D|----------------------------------------------------------------|
A|7-----------7---7-----------7---7-------------------------------|
E|----------------------------------------------------------------|

0:47

G|----------------------------------------------------------------|
D|----------------------------------------------------------------|
A|----------------------------------------------------------------|
E|5-----------5---5---------------7-----------7---7---------------|

G|----------------------------------------------------------------|
D|----------------------------------------------------------------|
A|7-----------7---7-----------7---7-----------7---7---7-------7---|
E|----------------------------------------------------------------|

G|----------------------------------------------------------------|
D|----------------------------------------------------------------|
A|----------------------------------------------------------------|
E|5-----------5---5-----------5---7-----------7---7-----------7---|

G|----------------------------------------------------------------|
D|----------------------------6---7-------------------------------|
A|7-----------7---7---------------------------7-------------------|
E|------------------------------------------------5-----------5---|

G|----------------------------------------------------------------|
D|----------------9---9-------------------------------------------|
A|------------9---------------9-----------------------------------|
E|7-------------------------------7-------------------------------|

1:08

G|----------------------------------------------------7-----------|
D|------------------------------------------/-9---------------9---|
A|7-----------7---7-----------7---7-------------------------------|
E|----------------------------------------------------------------|

G|----------------------------------------------------------------|
D|----------------------------------------------------------------|
A|7-----------7---7-----------7---7-------------------------------|
E|----------------------------------------------------------------|

1:17

G|----------------------------------------------------------------|
D|--------------------7---------------------------9---9-------9---|
A|------------7-------------------------------9-------------------|
E|5---------------------------5---7-------------------------------|

G|----------------------------------------------------------------|
D|----------------------------------------------------9-----------|
A|7-----------7---7-----------7----7----------7-----------7-------|
E|----------------------------------------------------------------|

G|----------------------------------------------------------------|
D|----------------7---7---------------------------9---9-------9---|
A|------------7-------------------------------9-------------------|
E|5---------------------------5---7-------------------------------|

G|----------------------------------------------------------------|
D|----------------------------6---7-------------------------------|
A|7-----------7---7---7-----------------------7-------------------|
E|------------------------------------------------5-----------5---|

G|----------------------------------------------------------------|
D|--------------------9-------------------------------------------|
A|------------9---------------9-----------------------------------|
E|7-------------------------------7-------------------------------|

1:37

G|----------------------------------------------------7-----------|
D|------------------------------------------/-9---------------9---|
A|7-----------7---7-----------7---7-------------------------------|
E|----------------------------------------------------------------|

G|----------------------------------------------------------------|
D|----------------------------------------------------------------|
A|7-----------7---7-----------7---7-------------------------------|
E|----------------------------------------------------------------|

1:45

G|----------------------------------------------------------------|
D|----------------------------------------------------------------|
A|----------------------------------------------------------------|
E|5-----------5---5-----------5---7-----------7---7---------------|

G|----------------------------------------------------------------|
D|----------------------------------------------------------------|
A|7-----------7---7-----------7---7-----------7---7---7-------7---|
E|----------------------------------------------------------------|

G|----------------------------------------------------------------|
D|----------------------------------------------------------------|
A|----------------------------------------------------------------|
E|5-----------5---5-----------5---7-----------7---7-----------7---|

G|----------------------------------------------------------------|
D|----------------------------6---7-------------------------------|
A|7-----------7---7---------------------------7-------------------|
E|------------------------------------------------5-----------5---|

G|----------------------------------|
D|----------------9-----------------|
A|------------9---------------9-----|
E|7---------------------------------|

G|------------------------------------------------------------|
D|------------------------------------------------------------|
A|------------------------------------------------------------|
E|7-----------------------------------------------------------|

2:07

G|--------------------------------------------------------7-------|
D|----------------------------------------------/-9-----------9---|
A|--7---------7---7-----------7---7-------------------------------|
E|----------------------------------------------------------------|

G|----------------------------------------7---7-------------------|
D|----------------------------------------------------9-----------|
A|7-----------7---7-----------7---7-------------------------------|
E|------------------------------------------------------------7---|

G|--------------------------------------------7-----------------------|
D|--------------------------------------/-9-----------9---------------| fades out here.
A|7-----------7---7-----------7---7-------------------------------7---|
E|------------------------------------------------------------7-------|

            
            
Suggest correction
Creating personal tab
Creating personal tab
You can edit any tab online and save it as your Personal.

You can edit, replace or remove any tab part or add personal notes – all changes will be seen only by you.

Personal tabs can be accessed anytime from any device, even offline.
Learn more »
Give kudos to tab author, rate the tab!
1 2 3 4 5
comments
print report bad tab
guest
You may want to rate the tab now too:
select rating
Wanna post a correction for this tab? Suggest correction