Oops, an error
Loading. Please wait.

French Song Bass Tab

22 views 1 this week
no commentswrite comment
1 2 3 4 5
3 more votes to show rating
add to favorites
launch autoscroll
font size
0
reset
guitar tuner
Autoscroll
slow
fast
+/-
esc
set tempo
stop
Help us to improve Ultimate-Guitar.com Take our survey!
×
Author
Difficulty
novice
Tabbed by: 6METAL6BASSIST6
E-mail: petergriffinav@gmail.com

Tuning: EADG

G|----------------------------------------------------------------|
D|----------------------------------------------------------------|
A|----------------------------------------------------------------|
E|0-----------0-----------0---------------------------------------|

0:10

G|----------------------------------------------------------------|
D|----------------------------------------------------------------|
A|----------------------------------------------------------------|
E|5-----------5---5---------------7-----------7---7---------------|

G|----------------------------------------------------------------|
D|----------------------------------------------------------------|
A|----------------------------------------------------------------|
E|0-----------0---0-----------0---0-----------0---0---0-------0---|

G|----------------------------------------------------------------|
D|----------------------------------------------------------------|
A|----------------------------------------------------------------|
E|5-----------5---5---------------7-----------7---7-----------7---|

G|----------------------------------------------------------------|
D|----------------------------6---7-------------------------------|
A|--------------------------------------------7-------------------|
E|0-----------0---0-------------------------------5-----------5---|

G|----------------------------------------------------------------|
D|----------------9-----------------------------------------------|
A|------------9---------------9-----------------------------------|
E|7-------------------------------7-------------------------------|

0:30

G|----------------------------------------------------7-----------|
D|------------------------------------------/-9---------------9---|
A|----------------------------------------------------------------|
E|0-----------0---0-----------0---0-------------------------------|

G|----------------------------------------------------7-------9---|
D|------------------------------------------/-9-------------------|
A|----------------------------------------------------------------|
E|0-----------0---0-----------0---0-------------------------------|

G|----------------------------------------------------7-----------|
D|------------------------------------------/-9---------------9---|
A|----------------------------------------------------------------|
E|0-----------0---0-----------0---0-------------------------------|

G|----------------------------------------------------------------|
D|----------------------------------------------------------------|
A|----------------------------------------------------------------|
E|0-----------0---0-----------0---0-------------------------------|

0:47

G|----------------------------------------------------------------|
D|----------------------------------------------------------------|
A|----------------------------------------------------------------|
E|5-----------5---5---------------7-----------7---7---------------|

G|----------------------------------------------------------------|
D|----------------------------------------------------------------|
A|----------------------------------------------------------------|
E|0-----------0---0-----------0---0-----------0---0---0-------0---|

G|----------------------------------------------------------------|
D|----------------------------------------------------------------|
A|----------------------------------------------------------------|
E|5-----------5---5-----------5---7-----------7---7-----------7---|

G|----------------------------------------------------------------|
D|----------------------------6---7-------------------------------|
A|--------------------------------------------7-------------------|
E|0-----------0---0-------------------------------5-----------5---|

G|----------------------------------------------------------------|
D|----------------9---9-------------------------------------------|
A|------------9---------------9-----------------------------------|
E|7-------------------------------7-------------------------------|

1:08

G|----------------------------------------------------7-----------|
D|------------------------------------------/-9---------------9---|
A|----------------------------------------------------------------|
E|0-----------0---0-----------0---0-------------------------------|

G|----------------------------------------------------------------|
D|----------------------------------------------------------------|
A|----------------------------------------------------------------|
E|0-----------0---0-----------0---0-------------------------------|

1:17

G|----------------------------------------------------------------|
D|--------------------7---------------------------9---9-------9---|
A|------------7-------------------------------9-------------------|
E|5---------------------------5---7-------------------------------|

G|----------------------------------------------------------------|
D|----------------------------------------------------9-----------|
A|----------------------------------------------------------------|
E|0-----------0---0-----------0---0-----------0-----------0-------|

G|----------------------------------------------------------------|
D|----------------7---7---------------------------9---9-------9---|
A|------------7-------------------------------9-------------------|
E|5---------------------------5---7-------------------------------|

G|----------------------------------------------------------------|
D|----------------------------6---7-------------------------------|
A|--------------------------------------------7-------------------|
E|0-----------0---0---0---------------------------5-----------5---|

G|----------------------------------------------------------------|
D|--------------------9-------------------------------------------|
A|------------9---------------9-----------------------------------|
E|7-------------------------------7-------------------------------|

1:37

G|----------------------------------------------------7-----------|
D|------------------------------------------/-9---------------9---|
A|----------------------------------------------------------------|
E|0-----------0---0-----------0---0-------------------------------|

G|----------------------------------------------------------------|
D|----------------------------------------------------------------|
A|----------------------------------------------------------------|
E|0-----------0---0-----------0---0-------------------------------|

1:45

G|----------------------------------------------------------------|
D|----------------------------------------------------------------|
A|----------------------------------------------------------------|
E|5-----------5---5---------------7-----------7---7---------------|

G|----------------------------------------------------------------|
D|----------------------------------------------------------------|
A|----------------------------------------------------------------|
E|0-----------0---0-----------0---0-----------0---0---0-------0---|

G|----------------------------------------------------------------|
D|----------------------------------------------------------------|
A|----------------------------------------------------------------|
E|5-----------5---5-----------5---7-----------7---7-----------7---|

G|----------------------------------------------------------------|
D|----------------------------6---7-------------------------------|
A|--------------------------------------------7-------------------|
E|0-----------0---0-------------------------------5-----------5---|

G|----------------------------------------------------------------|
D|----------------9-----------------------------------------------|
A|------------9---------------9-----------------------------------|
E|7---------------------------------7-----------------------------|

G|------------------------------|
D|------------------------------|
A|------------------------------|
E|------------------------------|

2:07

G|--------------------------------------------------------7-------|
D|----------------------------------------------/-9-----------9---|
A|----------------------------------------------------------------|
E|0-----------0---0-----------0---0-------------------------------|

G|----------------------------------------7---7-------------------|
D|----------------------------------------------------9-----------|
A|------------------------------------------------------------9---|
E|0-----------0---0-----------0---0-------------------------------|

G|--------------------------------------------7-----------|
D|--------------------------------------/-9-----------9---| fades out here.
A|--------------------------------------------------------|
E|0-----------0---0-----------0---0-----------------------|
Suggest correction
Give kudos to tab author, rate the tab!
1 2 3 4 5
comments
print report bad tab
guest
You may want to rate the tab now too:
select rating
Wanna post a correction for this tab? Suggest correction