Oops, an error
Loading. Please wait.

Hard To Believe bass

28 views 3 this week
no commentswrite comment
1 2 3 4 5
3 more votes to show rating
add to favorites
×
Save as Personal and add changes to this tab that will be seen only by you. Learn more ›
×
You can save this tab as Personal to edit and correct it or add notes. All changes will be seen only by you. Learn more »
launch autoscroll
font size
0
reset
guitar tuner
edit
Autoscroll
slow
fast
+/-
esc
set tempo
stop
Author
Difficulty
Tabbed by: 6METAL6BASSIST6
E-mail: petergriffinav@gmail.com

Tuning: EADG

G|----------------------------------------------------------------|
D|----------------------------------------------------------------|
A|----------------------------------------------------------------|
E|------------------------------------------------------------5---|

G|----------------------------------------------------------------|
D|----------------------------------------------------------------|
A|5-----------5---5---------------2---------------------------4---|
E|----------------------------5-------5-------3-------4---5-------|

G|----------------------------------------------------------------|
D|----------------------------------------------------------------|
A|5-----------5---5---------------2-------------------------------|
E|----------------------------5-------5-------3-------4-------5---|

0:11

G|----------------------------------------------------------------|
D|------------------------------/-7---------------7-------6-------|
A|5-----------5---5-----------5---------------7-------------------|
E|----------------------------------------------------------------|

G|----------------------------------------------------------------|
D|5-----------5---5-----------5-------------------7---------------|
A|--------------------------------7-----------7-------------------|
E|----------------------------------------------------5-------7---|

G|----------------------------------------------------------------|
D|------------------------------/-7---------------7-------6-------|
A|5-----------5---5---------------------------7-------------------|
E|----------------------------------------------------------------|

G|----------------------------------------------------------------|
D|5-----------5---5-------------------------------7-------6-------|
A|--------------------------------7-----------7-------------------|
E|----------------------------------------------------------------|

0:25

G|----------------------------------------------------------------|
D|5-----------5---4-----------4-------------------7---------------|
A|--------------------------------7-----------7-------------------|
E|----------------------------------------------------5-------7---|

G|----------------------------------------------------------------|
D|--------------------------------------------8-------------------|
A|5-------5-------4---------------------------------------8-------|
E|--------------------7-------6-----------------------------------|

G|----------------------------------------------------------------|
D|----------------------------------------------------------------|
A|7-----------7---------------7---7-----------7---------------7---|
E|----7---9-----------7---9-----------7---9-----------7---9-------|

G|----------------------------------------------------------------|
D|7-----------7-------------------7-------------------------------|
A|----7---9-----------7---9---7-------0-------1-------2---3---4---|
E|----------------------------------------------------------------|

0:39

G|----------------7-----------7-----------------------------------|
D|--------------------------------7---------------7-------6-------|
A|5-----------5-------------------------------7-------------------|
E|----------------------------------------------------------------|

G|----------------------------------------------------------------|
D|5---------------4-----------4-------------------7---------------|
A|------------------------------/-7-----------7-------------------|
E|----------------------------------------------------5-------7---|

G|--------------/-7-----------7-----------------------------------|
D|--------------------------------7---------------7-------6-------|
A|5-----------5-------------------------------7-------------------|
E|----------------------------------------------------------------|

G|----------------------------------------------------------------|
D|5-----------5---4-----------4-------------------7-------6-------|
A|--------------------------------7-----------7-------------------|
E|----------------------------------------------------------------|

0:53

G|----------------------------------------------------------------|
D|5-----------5---4-----------4-------------------7---------------|
A|--------------------------------7-----------7-------------------|
E|----------------------------------------------------5-------7---|

G|----------------------------------------------------------------|
D|------------------------------------------------8---------------|
A|5-------5-------4---------------------------------------8-------|
E|--------------------7-------6-----------------------------------|

G|----------------------------------------------------------------|
D|----------------------------------------------------------------|
A|7-----------7---------------7---7-----------7---------------7---|
E|----7---9-----------7---9-----------7---9-----------7---9-------|

G|----------------------------------------------------------------|
D|7-----------7-------------------7-------------------------------|
A|----7---9-----------7---9---7-------2-------3-------4-----------|
E|------------------------------------------------------------5---|

1:08

G|----------------------------------------------------------------|
D|--------------------------------7---------------7-------6-------|
A|5-----------5---5-----------5---------------7-------------------|
E|----------------------------------------------------------------|

G|----------------------------------------------------------------|
D|5-----------5---5-----------5-------------------7---------------|
A|--------------------------------7-----------7-------------------|
E|----------------------------------------------------5-------7---|

G|----------------------------------------------------------------|
D|--------------------------------7---------------7-------6-------|
A|5-----------5---5-----------5---------------7-------------------|
E|----------------------------------------------------------------|

G|----------------------------------------------------------------|
D|5-----------5---5-----------5-------------------7-------6-------|
A|--------------------------------7-----------7-------------------|
E|----------------------------------------------------------------|

1:22

G|----------------------------------------------------------------|
D|5-----------5---4-----------4-------------------7---------------|
A|--------------------------------7-----------7-------------------|
E|----------------------------------------------------5-------7---|

G|----------------------------------------------------------------|
D|------------------------------------------------8---------------|
A|5-------5-------4---------------------------------------8-------|
E|--------------------7-------6-----------------------------------|

G|----------------------------------------------------------------|
D|----------------------------------------------------------------|
A|7-----------7-------------------7-----------7---------------7---|
E|----7---9-----------9---7---9-------7---9-----------7---9-------|

G|----------------------------------------------------------------|
D|7-----------7---------------7---9---9---9---9---9---9---9---9---|
A|----7---9-----------7---9---------------------------------------|
E|----------------------------------------------------------------|

1:36

G|----------------9-----------9-----------------------------------|
D|--------------------------------9---------------9---8-----------|
A|7-----------7-------------------------------9---------------7---|
E|----------------------------------------------------------------|

G|----------------------------------------------------------------|
D|7-----------7---6-----------6-------------------9---------------|
A|--------------------------------9-----------9-------------------|
E|----------------------------------------------------7-------9---|

G|----------------9-----------9-----------------------------------|
D|--------------------------------9---------------8---9---8-------|
A|7-----------7-------------------------------9-------------------|
E|----------------------------------------------------------------|

G|----------------------------------------------------------------|
D|7-----------7---6-----------6-------------------9-------8-------|
A|--------------------------------9-----------9-------------------|
E|----------------------------------------------------------------|

1:50

G|----------------------------------------------------------------|
D|7-----------7---6-----------6-------------------9---------------|
A|--------------------------------9-----------9-------------------|
E|----------------------------------------------------7-------9---|

G|----------------------------------------------------------------|
D|----------------------------------------------/-10--------------|
A|7-------7-------6--------------------------------------10-------|
E|--------------------9-------8-----------------------------------|

G|----------------------------------------------------------------|
D|----------------------------------------------------------------|
A|9-----------9---------------9---9-----------9---------------9---|
E|----9---11----------9---11----------11--9-----------9---11------|

G|----------------------------------------------------------------|
D|9-----------9---------------9---9---9---9---9---9---9---9-------|
A|----9---11----------9---11--------------------------------------|
E|----------------------------------------------------------------|

2:04

G|----------------------------------------------------------------|
D|----------------------------------------------------------------| x2
A|7-----------7---7---7-----------4---------------------------6---|
E|----------------------------7-------4-------5-------6---7-------|

G|----------------------------------------------------------------|
D|----------------------------------------------------------------|
A|7-----------7---7---7-------7-----------------------------------|
E|--------------------------------8-------------------------------|

G|----------------------------------------------------------------|
D|----------------------------------------------------------------|
A|----------------------------------------------------------------|
E|------------------------------------------------------------7---|

G|----------------------------------------------------------------|
D|----------------------------------------------------------------| x2
A|7---------------7---------------4---------------------------6---|
E|------------7---------------7-------4-------5-------6---7-------|

G|----------------------------------------------------------------|
D|----------------------------------------------------------------| x2 to fadeout.
A|7---7-----------7---------------4---------------------------6---|
E|------------7---------------7-------4-------5-------6---7-------|



************************************

| /  Slide up

************************************

            
            
Suggest correction
Creating personal tab
Creating personal tab
You can edit any tab online and save it as your Personal.

You can edit, replace or remove any tab part or add personal notes – all changes will be seen only by you.

Personal tabs can be accessed anytime from any device, even offline.
Learn more »
Give kudos to tab author, rate the tab!
1 2 3 4 5
comments
print report bad tab
guest
You may want to rate the tab now too:
select rating
Wanna post a correction for this tab? Suggest correction