Oops, an error
Loading. Please wait.

Hold On Girl bass

88 views 1 this week
no commentswrite comment
1 2 3 4 5
3 more votes to show rating
add to favorites
×
Save as Personal and add changes to this tab that will be seen only by you. Learn more ›
×
You can save this tab as Personal to edit and correct it or add notes. All changes will be seen only by you. Learn more »
launch autoscroll
font size
0
reset
guitar tuner
edit
Autoscroll
slow
fast
+/-
esc
set tempo
stop
Author
Difficulty
Tabbed by: 6METAL6BASSIST6
E-mail: petergriffinav@gmail.com

Tuning: EADG

First recorded version.

0:13

G|----------------------------------------------------------------|
D|4---------------2---------------0-------------------------------|
A|------------------------------------------------4---------------|
E|----------------------------------------------------------------|

G|----------------------------------------------------------------|
D|4---------------2---------------4-------4-------6-------8-------|
A|----------------------------------------------------------------|
E|----------------------------------------------------------------|

G|----------------------------------------------------------------|
D|9-------------------------------7-------------------------------|
A|----------------7-------------------------------9---------------|
E|----------------------------------------------------------------|

G|----------------------------------------------------------------|
D|9-------------------------------7-------------------------------|
A|----------------7-----------------------------------------------|
E|----------------------------------------------------------------|

0:30

G|----------------------------------------------------------------|
D|----------------------------------------------------------------|
A|5-----------5---5---------------5-------------------------------|
E|----------------------------------------------------------------|

G|----------------------------------------------------------------|
D|5-----------5---5---------------5-------------------------------|
A|----------------------------------------------------------------|
E|----------------------------------------------------------------|

G|----------------------------------------------------------------|
D|----------------------------------------------------------------|
A|7-----------7---7---------------7-------------------------------|
E|----------------------------------------------------------------|

G|--------------------------------------------------------------------------------|
D|------------3-----------4-----------2-----0---------------------1-------3-------|
A|4-----------------------------------------------4-------4-----------------------|
E|--------------------------------------------------------------------------------|

0:50

G|----------------------------------------------------------------|
D|4---------------2---------------0-------------------------------|
A|------------------------------------------------4---------------|
E|----------------------------------------------------------------|

G|----------------------------------------------------------------|
D|4---------------2---------------4-------4-------6-------8-------|
A|----------------------------------------------------------------|
E|----------------------------------------------------------------|

G|----------------------------------------------------------------|
D|9-------------------------------7-------------------------------|
A|----------------7-------------------------------9---------------|
E|----------------------------------------------------------------|

G|----------------------------------------------------------------|
D|9-------------------------------7-------------------------------|
A|----------------7-------------------------------------------5---|
E|----------------------------------------------------------------|

1:07

G|----------------------------------------------------------------|
D|----------------------------------------------------------------|
A|------------5---5---------------5-------------------------------|
E|----------------------------------------------------------------|

G|----------------------------------------------------------------|
D|5-----------5---5---------------5-------------------------------|
A|----------------------------------------------------------------|
E|----------------------------------------------------------------|

G|----------------------------------------------------------------|
D|--------------------------------7-------------------------------|
A|7-----------7---7-----------------------------------------------|
E|----------------------------------------------------------------|

G|--------------------------------------------------------------------------------|
D|------------3-----------4-----------2-----0---------------------1-------3-------|
A|4-----------------------------------------------4-------4-----------------------|
E|--------------------------------------------------------------------------------|

1:27

G|----------------------------------------------------------------|
D|4-----------4---2---------------0-----------0-------------------|
A|------------------------------------------------4---------------|
E|----------------------------------------------------------------|

G|----------------------------------------------------------------|
D|4-----------4---2-----------2---4-------4-------6-------8-------|
A|----------------------------------------------------------------|
E|----------------------------------------------------------------|

G|----------------------------------------------------------------|
D|9-------------------------------7-------------------------------|
A|----------------7-------------------------------9---------------|
E|----------------------------------------------------------------|

G|----------------------------------------------------------------|
D|9-------------------------------7-------------------------------|
A|----------------7-------------------------------------------5---|
E|----------------------------------------------------------------|

1:44

G|----------------------------------------------------------------|
D|------------------------------------------------------------5---|
A|------------5---5---------------5-------------------------------|
E|----------------------------------------------------------------|

G|----------------------------------------------------------------|
D|------------5---5---------------5-------------------------------|
A|----------------------------------------------------------------|
E|----------------------------------------------------------------|

G|----------------------------------------------------------------|
D|----------------------------------------------------------------|
A|7-----------7---7---------------7-------------------------------|
E|----------------------------------------------------------------|

G|--------------------------------------------------------------------------------|
D|------------3-----------4-----------2-----0---------------------1-------3-------|
A|4-----------------------------------------------4-------4-----------------------|
E|--------------------------------------------------------------------------------|

2:04

G|----------------------------------------------------------------|
D|4---------------2---------------0-------------------------------|
A|------------------------------------------------4---------------|
E|----------------------------------------------------------------|

G|----------------------------------------------------------------|
D|4---------------2---------------4-------4-------6-------8-------|
A|----------------------------------------------------------------|
E|----------------------------------------------------------------|

G|----------------------------------------------------------------|
D|9-------------------------------7-------------------------------|
A|----------------7-------------------------------9---------------|
E|----------------------------------------------------------------|

G|----------------------------------------------------------------|
D|9-------------------------------7-------------------------------|
A|----------------7-------------------------------------------5---|
E|----------------------------------------------------------------|

2:22

G|----------------------------------------------------------------|
D|------------------------------------------------------------5---|
A|------------5---5---------------5-------------------------------|
E|----------------------------------------------------------------|

G|----------------------------------------------------------------|
D|------------5---5---------------5-------------------------------|
A|----------------------------------------------------------------|
E|----------------------------------------------------------------|

G|----------------------------------------------------------------|
D|----------------------------------------------------------------|
A|7-----------7---7---------------7-------------------------------|
E|----------------------------------------------------------------|

G|----------------------------------------------------------------|
D|------------3-----------4-----------2-----0---------------------|
A|4-------------------------------------------------4-------------|
E|----------------------------------------------------------------|

            
            
Suggest correction
Creating personal tab
Creating personal tab
You can edit any tab online and save it as your Personal.

You can edit, replace or remove any tab part or add personal notes – all changes will be seen only by you.

Personal tabs can be accessed anytime from any device, even offline.
Learn more »
Give kudos to tab author, rate the tab!
1 2 3 4 5
comments
print report bad tab
guest
You may want to rate the tab now too:
select rating
Wanna post a correction for this tab? Suggest correction