Oops, an error
Loading. Please wait.

I Cant Get Her Off My Mind Bass Tab

1 view 1 this week
no commentswrite comment
1 2 3 4 5
3 more votes to show rating
add to favorites
launch autoscroll
font size
0
reset
guitar tuner
Autoscroll
slow
fast
+/-
esc
set tempo
stop
Help us to improve Ultimate-Guitar.com Take our survey!
×
Author
Difficulty
novice
Tabbed by: 6METAL6BASSIST6
E-mail: petergriffinav@gmail.com

Tuning: EADG

From the Headquarters album.

G|------------------------|
D|----------------------4/|
A|------------------------|
E|------------------------|

G|----------6/7---------------6/7---------------------------6/7---------------6/7-----------------|
D|5---------------------4/5---------------------4/5---------------------4/5---------------------4/|
A|------------------------------------------------------------------------------------------------|
E|------------------------------------------------------------------------------------------------|

0:10

G|----------6/7---------------------6/7---6/7---------------6/7-----------------------------------|
D|5---------------------4/5---------------------4/5---------------------4/5---5-3-----2-----------|
A|------------------------------------------------------------------------------------------5-----|
E|------------------------------------------------------------------------------------------------|

G|----------------------------------------------------------6/7---------------6/7-----------------|
D|------------------------------------------5-----5---------------------4/5-----------------------|
A|3-----3---------------2/3-----3-----3---------------------------------------------------------4/|
E|------------3-----3-----------------------------------------------------------------------------|

G|----------------------------------------------------------6/7-----------------------------------|
D|----------------------------------------------4/5---------------------4/5---4/5---------------4/|
A|5---------5-------5-----3---------------------------------------------------------------5-------|
E|------------5-----------------------------------------------------------------------------------|

0:34

G|----------6/7---------------------6/7---6/7---------------6/7-----------------------------------|
D|5---------------------4/5---------------------4/5---------------------4/5---5-3-----2-----------|
A|------------------------------------------------------------------------------------------5-----|
E|------------------------------------------------------------------------------------------------|

G|----------------------------------------------------------6/7---------------6/7-----------------|
D|------------------------------------------------5---------------------4/5-----------------------|
A|3-----3---------------2/3-----3-----3-----3---------------------------------------------------4/|
E|------------3-----3-----------------------------------------------------------------------------|

G|----------------------------------------------------------6/7-----------------------------------|
D|----------------------------------------------4/5---------------------4/5---4/5---------5/6-----|
A|5---------5-------5-----3-----------------------------------------------------------------------|
E|------------5-----------------------------------------------------------------------------------|

0:56

G|------------------------------------------------------------------------------------------------|
D|7-----7-----------7---7-------------------------5-----------------------------4-----5-----6-----|
A|------------7-----------5-----3-----2-----5-----------------------------------------------------|
E|------------------------------------------------------------------------------------------------|

G|------------------------------------------------7-------------------------------------------------|
D|7-----7---------------6/7-----7-----------7-------------------------------------------------------|
A|------------7-----7-----------------7-------------------------------------------------------------|
E|--------------------------------------------------------------------------------------------------|

1:12

G|----------6/7---------------6/7---------------------------6/7-----------------------------------|
D|5---------------------4/5---------------------4/5---------------------4/5---5-3-----2-----------|
A|------------------------------------------------------------------------------------------5-----|
E|------------------------------------------------------------------------------------------------|

G|----------------------------------------------------------6/7---------------6/7-----------------|
D|------------------------------------5-----------5---------------------4/5-----------------------|
A|3-----3---------------2/3-----3-----------3-----------------------------------------------------|
E|------------3-----3-----------------------------------------------------------------------------|

G|----------------------------------------------------------6/7-----------------------------------|
D|----------------------------------------------4/5---------------------4/5---------4/5-----5-----|
A|5-----5-----5-----5-----3-----------------------------------------------------------------------|
E|------------------------------------------------------------------------------------------------|

1:35

G|------------------------------------------------------------------------------------------------|
D|7---------7-------7---7-------------------------5-----------------------------4-----5-----6-----|
A|------------7-----------5-----3-----2-----5-----------------------------------------------------|
E|------------------------------------------------------------------------------------------------|

G|------------------------------------------------7-------------------------------------------------|
D|7-----7---------------6/7-----7-----------7-------------------------------------------------------|
A|------------7-----7-----------------7-------------------------------------------------------------|
E|--------------------------------------------------------------------------------------------------|

1:50

G|----------6/7---------------6/7---------------------------6/7-----------------------------------|
D|5---------------------4/5---------------------4/5---------------------4/5---5-3-----2-----------|
A|------------------------------------------------------------------------------------------5-----|
E|------------------------------------------------------------------------------------------------|

G|----------------------------------------------------------6/7---------------6/7-----------------|
D|------------------------------------------------5---------------------4/5-----------------------|
A|3-----3---------------2/3-----3-----3-----3---------------------------------------------------4/|
E|------------3-----------------------------------------------------------------------------------|

G|----------------------------------------------------------6/7---------------------6/7---6/7-----|
D|----------------------------------------------4/5---------------------4/5-----------------------|
A|5---------5-------5-----3---------------------------------------------------------------------4/|
E|------------5-----------------------------------------------------------------------------------|

G|------------------------------------------------------------------------------------------|
D|------------------5---5-5-----------------------5---5-2---2-------------------2-----5-----|
A|5-----5-----5-----------------------------------------------5---5-2---2-----5-------------|
E|------------------------------------------------------------------------3-----------------|
Suggest correction
Give kudos to tab author, rate the tab!
1 2 3 4 5
comments
print report bad tab
guest
You may want to rate the tab now too:
select rating
Wanna post a correction for this tab? Suggest correction