Oops, an error
Loading. Please wait.

Ill Be Back Up On My Feet bass

version 1
version 1

Whole song

118 views 1 this week
no commentswrite comment
1 2 3 4 5
2 more votes to show rating
add to favorites
×
Save as Personal and add changes to this tab that will be seen only by you. Learn more ›
×
You can save this tab as Personal to edit and correct it or add notes. All changes will be seen only by you. Learn more »
launch autoscroll
font size
0
reset
guitar tuner
edit
Autoscroll
slow
fast
+/-
esc
set tempo
stop
Author
Difficulty
Tabbed by: 6METAL6BASSIST6
E-mail: petergriffinav@gmail.com

Tuning: EADG

T.V. version.

G|----------------------------------------------------------------|
D|----------------------------------------------------------------|
A|0-----0-0-----0---0---0-0-------0-----0-0-----0---0---0-0-------|
E|----------------------------------------------------------------|

G|----------------------------------------------------------------|
D|----------------------------------------------------------------|
A|0-----0-0-----0---0---0-0-------0-----0-0-----0---0---------7-\-|
E|----------------------------------------------------------------|

0:09

G|----------------------------------------------------------------|
D|----------------------------------------------------------------|
A|0-----0-0-----0---0---0-0-------5-----5-5-----5---5---5-5-------|
E|----------------------------------------------------------------|

G|----------------------------------------------------------------|
D|----------------------------------------------------------------|
A|7-----7-7-----0---0---0-0-------7-----7-7-----7---7---7-7-------|
E|----------------------------------------------------------------|

G|----------------------------------------------------------------|
D|----------------------------------------------4---4---4-4-------|
A|5-----5-5-----7---7---7-7-------4-----4-4-----------------------|
E|----------------------------------------------------------------|

G|----------------------------------------------------------------|
D|--------------------------------2-----------------2-0-----------|
A|2-------------------------------------------------------4---2---|
E|----------------------------------------------------------------|

0:28

G|----------------------------------------------------------------|
D|----------------------------------------------------------------|
A|0-----0-0-----0---0-----0-------0-----0-0-----0---0-----0-------|
E|----------------------------------------------------------------|

G|----------------------------------------------------------------|
D|--------------2---2---2-2---------------------------------------|
A|2-----2-2-----------------------4-----4-4-----0---0---0-0-------|
E|----------------------------------------------------------------|

G|----------------------------------------------------------------|
D|----------------------------------------------------------------|
A|5-----5-5-----5---5---5-5-------5-----5-5-----5---5---5-5-------|
E|----------------------------------------------------------------|

G|----------------------------------------------------------------|
D|5-----5-5-----4---4---4-4-------5-----4-----2-------------------|
A|--------------------------------------------------------0-------|
E|----------------------------------------------------------------|

G|----------------------------------------------------------------|
D|----------------------------------------------------------------|
A|5-----5-5-----5---5---5-5-------7-----7-7-----7---7---7-7---7-\-|
E|----------------------------------------------------------------|

G|----------------------------------------------------------------|
D|----------------------------------------------------------------|
A|0--------------------------7-\-0----------------------------7-\-|
E|----------------------------------------------------------------|

0:56

G|----------------------------------------------------------------|
D|----------------------------------------------------------------|
A|0-----0-0-----0---0---0-0-------5-----5-5-----5---5---5-5-------|
E|----------------------------------------------------------------|

G|----------------------------------------------------------------|
D|----------------------------------------------------------------|
A|7-----7-7-----0---0---0-0-------7-----7-7-----7---7---7-7-------|
E|----------------------------------------------------------------|

G|----------------------------------------------------------------|
D|----------------------------------------------4---4---4-4-------|
A|5-----5-5-----7---7---7-7-------4-----4-4-----------------------|
E|----------------------------------------------------------------|

G|----------------------------------------------------------------|
D|--------------------------------2-----------------2-0-----------|
A|2-------------------------------------------------------4---2---|
E|----------------------------------------------------------------|

1:15

G|----------------------------------------------------------------|
D|----------------------------------------------------------------|
A|0-----0-0-----0---0-----0-------0-----0-0-----0---0---0-0-------|
E|----------------------------------------------------------------|

G|----------------------------------------------------------------|
D|--------------2---2---2-2---------------------------------------|
A|2-----2-2-----------------------4-----4-4-----0---0---0-0-------|
E|----------------------------------------------------------------|

G|----------------------------------------------------------------|
D|----------------------------------------------------------------|
A|5-----5-5-----5---5---5-5-------5-----5-5-----5---5---5-5-------|
E|----------------------------------------------------------------|

G|----------------------------------------------------------------|
D|5-----5-5-----4---4---4-4-------5-----4-----2-------------------|
A|--------------------------------------------------------0-------|
E|----------------------------------------------------------------|

G|----------------------------------------------------------------|
D|----------------------------------------------------------------|
A|5-----5-5-----5---5---5-5-------7-----7-7-----7---7---7-7---7-\-|
E|----------------------------------------------------------------|

G|----------------------------------------------------------------|
D|----------------------------------------------------------------|
A|0--------------------------7-\-0----------------------------7-\-|
E|----------------------------------------------------------------|

1:43

G|----------------------------------------------------------------|
D|----------------------------------------------------------------|
A|0-----0-0-----0---0---0-0-------5-----5-5-----5---5---5-5-------|
E|----------------------------------------------------------------|

G|----------------------------------------------------------------|
D|----------------------------------------------------------------|
A|7-----7-7-----0---0---0-0-------7-----7-7-----7---7---7-7-------|
E|----------------------------------------------------------------|

G|----------------------------------------------------------------|
D|----------------------------------------------4---4---4-4-------|
A|5-----5-5-----7---7---7-7-------4-----4-4-----------------------|
E|----------------------------------------------------------------|

G|----------------------------------------------------------------|
D|--------------------------------2-----------------2-0-----------|
A|2-------------------------------------------------------4---2---|
E|----------------------------------------------------------------|

2:01

G|----------------------------------------------------------------|
D|----------------------------------------------------------------|
A|0-----0-0-----0---0-----0-------0-----0-0-----0---0---0-0-------|
E|----------------------------------------------------------------|

G|----------------------------------------------------------------|
D|--------------2---2---2-2---------------------------------------|
A|2-----2-2-----------------------4-----4-4-----0---0---0-0-------|
E|----------------------------------------------------------------|

G|----------------------------------------------------------------|
D|----------------------------------------------------------------|
A|5-----5-5-----5---5---5-5-------5-----5-5-----5---5---5-5-------|
E|----------------------------------------------------------------|

G|----------------------------------------------------------------|
D|5-----5-5-----4---4---4-4-------5-----4-----2-------------------|
A|--------------------------------------------------------0-------|
E|----------------------------------------------------------------|

G|----------------------------------------------------------------|
D|--------------------------------5-----4-----2-------------------|
A|5-----5-5-----5---5---5-5-------------------------------0-------|
E|----------------------------------------------------------------|

G|----------------------------------------------------------------|
D|--------------------------------5-----4-----2-------------------|
A|5-----5-5-----5---5---5-5-------------------------------0-------|
E|----------------------------------------------------------------|

G|--------------------------------|
D|--------------------------------|
A|5-----5-----5-------------------|
E|--------------------------------|

            
            
Suggest correction
Creating personal tab
Creating personal tab
You can edit any tab online and save it as your Personal.

You can edit, replace or remove any tab part or add personal notes – all changes will be seen only by you.

Personal tabs can be accessed anytime from any device, even offline.
Learn more »
Give kudos to tab author, rate the tab!
1 2 3 4 5
comments
print report bad tab
guest
You may want to rate the tab now too:
select rating
Wanna post a correction for this tab? Suggest correction