Oops, an error
Loading. Please wait.

Im A Believer Tab

version 1
version 1

Intro

Whole song

Interactive

48,198 views 45 this week
2 commentsread comments
1 2 3 4 5
excellent!
x 8
add to favorites
launch autoscroll
font size
0
reset
how to read this tab
guitar tuner
Tab Pro tools
  • play this tab
  • loop segment
  • change instrument
  • show fretboard
  • metronome
×
Best way to learn
"Im A Believer"
Autoscroll
slow
fast
+/-
esc
set tempo
stop
Contributor
============================================================================
Artist: The Monkees
Song: I'm a Believer
Album: ??
Tuning: Standard
Tabber: Christian Bourne
============================================================================
The reason why i submitted this tab is because the other tab for this is incorrect and hard to read.
============================================================================

Intro (Clean)

e|----------------|-13--13--12--12-|----------------|----------------|
B|----------------|-15--15--13--13-|----------------|----------------|
G|-------------12-|-----12--12--12-|----------------|----------------|
D|----------------|----------------|----3-----3---3-|----3-----3---3-|
A|----------------|----------------|3h5---3h5---3---|3h5---3h5---3---|
E|----------------|----------------|----------------|----------------|

============================================================================
or you can play the intro like this, which ever way is easier for you.
============================================================================

Different Intro (Clean)

e|----------------|-1---1---0---0--|----------------|----------------|
B|----------------|-3---3---1---1--|----------------|----------------|
G|-------------0--|-----0---0---0--|----------------|----------------|
D|----------------|----------------|----3-----3---3-|----3-----3---3-|
A|----------------|----------------|3h5---3h5---3---|3h5---3h5---3---|
E|----------------|----------------|----------------|----------------|

============================================================================
Well thats it any questions or suggestions please leave a comment, Thanks
============================================================================h~ = Hammer On
============================================================================
comments
print report bad tab
2 comments total.
0 reply
Gibsonfan! wrote on February 16 2008, 12:28 pm

this is the 3rd nd 4th bars

E-----------------------------------------
B-----------------------------------------
G-----------------------------------------
D--------3-----3-----3-----3-----3--------
A----3H5---3H5---3H5---3H5---3H5---3H5----
E-----------------------------------------

0 reply
jdd55 wrote on July 18 2010, 07:58 pm

Okay, it's 3H5 3, 3H5 3, 3H5, 3H5 3, 3H5 3, 3H5. Done deal and final.

I want to post or [tab]
guest
You may want to rate the tab now too:
select rating
Please do not post tabs as comments. Select "correction" instead!