Oops, an error
Loading. Please wait.
We have Chord Pro version of Im A Believer.
It's the closest thing you can get to the original song and it has interactive parts. Check out the tab »
×
17,724 views 21 this week
no commentswrite comment
1 2 3 4 5
x 5
add to favorites
×
Save as Personal and add changes to this tab that will be seen only by you. Learn more ›
×
You can save this tab as Personal to edit and correct it or add notes. All changes will be seen only by you. Learn more »
launch autoscroll
font size
0
reset
how to read this tab
guitar tuner
backing track
0:00
0:00
edit
Autoscroll
slow
fast
+/-
esc
set tempo
stop
============================================================================
Artist: The Monkees (orginally Niel Diamond)
Song I'm A Believer 

Tabbed by: Christian Bourne 
Tuning: Standard 
============================================================================

Intro 

e|-----------------|-1---1---0---0---|-----------------|-----------------|
B|-----------------|-3---3---1---1---|-----------------|-----------------|
G|-------------0---|-----0---0---0---|-----------------|-----------------|
D|-----------------|-----------------|-----3-----3---3-|------3----3---3-|
A|-----------------|-----------------|-3h5---3h5---3---|-3h5---3h5---3---|
E|-----------------|-----------------|-----------------|-----------------|

Verse 
   G                 D                 G                 G 
e|-3---3---3---3---|-2---2---2---2---|-3---3---3---3---|-3---3---3---3---|
B|-3---3---3---3---|-3---3---3---3---|-3---3---3---3---|-3---3---3---3---|
G|-0---0---0---0---|-2---2---2---2---|-0---0---0---0---|-0---0---0---0---|
D|-0---0---0---0---|-0---0---0---0---|-0---0---0---0---|-0---0---0---0---|
A|-2---2---2---2---|-----------------|-2---2---2---2---|-2---2---2---2---|
E|-3---3---3---3---|-----------------|-3---3---3---3---|-3---3---3---3---|
  G                 D                 G                 G 
e|-3---3---3---3---|-2---2---2---2---|-3---3---3---3---|-3---3---3---3---|
B|-3---3---3---3---|-3---3---3---3---|-3---3---3---3---|-3---3---3---3---|
G|-0---0---0---0---|-2---2---2---2---|-0---0---0---0---|-0---0---0---0---|
D|-0---0---0---0---|-0---0---0---0---|-0---0---0---0---|-0---0---0---0---|
A|-2---2---2---2---|-----------------|-2---2---2---2---|-2---2---2---2---|
E|-3---3---3---3---|-----------------|-3---3---3---3---|-3---3---3---3---|

Bridge 
   C/9               G                 C/9               G 
e|-3---3---3---3---|-3---3---3---3---|-3---3---3---3---|-3---3---3---3---|
B|-3---3---3---3---|-3---3---3---3---|-3---3---3---3---|-3---3---3---3---|
G|-0---0---0---0---|-0---0---0---0---|-0---0---0---0---|-0---0---0---0---|
D|-2---2---2---2---|-0---0---0---0---|-2---2---2---2---|-0---0---0---0---|
A|-3---3---3---3---|-2---2---2---2---|-3---3---3---3---|-2---2---2---2---|
E|-----------------|-3---3---3---3---|-----------------|-3---3---3---3---|
   C/9               G                 D                 D                 
e|-3---3---3---3---|-3---3---3---3---|-2-2-2-2-2-2-2-2-|-2-2-2-2---------|
B|-3---3---3---3---|-3---3---3---3---|-3-3-3-3-3-3-3-3-|-3-3-3-3---------|
G|-0---0---0---0---|-0---0---0---0---|-2-2-2-2-2-2-2-2-|-2-2-2-2---------|
D|-2---2---2---2---|-0---0---0---0---|-0-0-0-0-0-0-0-0-|-0-0-0-0---------|
A|-3---3---3---3---|-2---2---2---2---|-----------------|-----------------|
E|-----------------|-3---3---3---3---|-----------------|-----------------|

Chorus 
   G       C/9       G       C/9     G       C/9         G       C/9   
e|-3---3---3---3---|-3---3---3---3---|-3---3---3---3---|-3---3---3---3---|
B|-3---3---3---3---|-3---3---3---3---|-3---3---3---3---|-3---3---3---3---|
G|-0---0---0---0---|-0---0---0---0---|-0---0---0---0---|-0---0---0---0---|
D|-0---0---2---2---|-0---0---2---2---|-0---0---2---2---|-0---0---2---2---|
A|-2---2---3---3---|-2---2---3---3---|-2---2---3---3---|-2---2---3---3---|
E|-3---3-----------|-3---3-----------|-3---3-----------|-3---3-----------|
   G       C/9       G       C/9       G       C/9       G       C/9   
e|-3---3---3---3---|-3---3---3---3---|-3---3---3---3---|-3---3---3---3---|
B|-3---3---3---3---|-3---3---3---3---|-3---3---3---3---|-3---3---3---3---|
G|-0---0---0---0---|-0---0---0---0---|-0---0---0---0---|-0---0---0---0---|
D|-0---0---2---2---|-0---0---2---2---|-0---0---2---2---|-0---0---2---2---|
A|-2---2---3---3---|-2---2---3---3---|-2---2---3---3---|-2---2---3---3---|
E|-3---3-----------|-3---3-----------|-3---3-----------|-3---3-----------|
   G                 C/9               G                 F   
e|-3~~~~~~~~~~~~~~~|-3~~~~~~~~~~~~~~~|-3~~~~~~~~~~~~~~~|-1~~~~~~~~~~~~~~~|
B|-3~~~~~~~~~~~~~~~|-3~~~~~~~~~~~~~~~|-3~~~~~~~~~~~~~~~|-1~~~~~~~~~~~~~~~|
G|-0~~~~~~~~~~~~~~~|-0~~~~~~~~~~~~~~~|-0~~~~~~~~~~~~~~~|-2~~~~~~~~~~~~~~~|
D|-0~~~~~~~~~~~~~~~|-2~~~~~~~~~~~~~~~|-0~~~~~~~~~~~~~~~|-3~~~~~~~~~~~~~~~|
A|-2~~~~~~~~~~~~~~~|-3~~~~~~~~~~~~~~~|-2~~~~~~~~~~~~~~~|-----------------|
E|-3~~~~~~~~~~~~~~~|-----------------|-3~~~~~~~~~~~~~~~|-----------------|

Riff

e|-----------------|-----------------|
B|-----------------|-----------------|
G|-----------------|-----------------|
D|-----3-----3---3-|------3----3---3-|
A|-3h5---3h5---3---|-3h5---3h5---3---|
E|-----------------|-----------------|

Verse 
   G                 D                 G                 G 
e|-3---3---3---3---|-2---2---2---2---|-3---3---3---3---|-3---3---3---3---|
B|-3---3---3---3---|-3---3---3---3---|-3---3---3---3---|-3---3---3---3---|
G|-0---0---0---0---|-2---2---2---2---|-0---0---0---0---|-0---0---0---0---|
D|-0---0---0---0---|-0---0---0---0---|-0---0---0---0---|-0---0---0---0---|
A|-2---2---2---2---|-----------------|-2---2---2---2---|-2---2---2---2---|
E|-3---3---3---3---|-----------------|-3---3---3---3---|-3---3---3---3---|
  G                 D                 G                 G 
e|-3---3---3---3---|-2---2---2---2---|-3---3---3---3---|-3---3---3---3---|
B|-3---3---3---3---|-3---3---3---3---|-3---3---3---3---|-3---3---3---3---|
G|-0---0---0---0---|-2---2---2---2---|-0---0---0---0---|-0---0---0---0---|
D|-0---0---0---0---|-0---0---0---0---|-0---0---0---0---|-0---0---0---0---|
A|-2---2---2---2---|-----------------|-2---2---2---2---|-2---2---2---2---|
E|-3---3---3---3---|-----------------|-3---3---3---3---|-3---3---3---3---|

Bridge 
   C/9               G                 C/9               G 
e|-3---3---3---3---|-3---3---3---3---|-3---3---3---3---|-3---3---3---3---|
B|-3---3---3---3---|-3---3---3---3---|-3---3---3---3---|-3---3---3---3---|
G|-0---0---0---0---|-0---0---0---0---|-0---0---0---0---|-0---0---0---0---|
D|-2---2---2---2---|-0---0---0---0---|-2---2---2---2---|-0---0---0---0---|
A|-3---3---3---3---|-2---2---2---2---|-3---3---3---3---|-2---2---2---2---|
E|-----------------|-3---3---3---3---|-----------------|-3---3---3---3---|
   C/9               G                 D                 D                 
e|-3---3---3---3---|-3---3---3---3---|-2-2-2-2-2-2-2-2-|-2-2-2-2---------|
B|-3---3---3---3---|-3---3---3---3---|-3-3-3-3-3-3-3-3-|-3-3-3-3---------|
G|-0---0---0---0---|-0---0---0---0---|-2-2-2-2-2-2-2-2-|-2-2-2-2---------|
D|-2---2---2---2---|-0---0---0---0---|-0-0-0-0-0-0-0-0-|-0-0-0-0---------|
A|-3---3---3---3---|-2---2---2---2---|-----------------|-----------------|
E|-----------------|-3---3---3---3---|-----------------|-----------------|

Chorus 
  G       C/9       G       C/9     G       C/9         G       C/9   
e|-3---3---3---3---|-3---3---3---3---|-3---3---3---3---|-3---3---3---3---|
B|-3---3---3---3---|-3---3---3---3---|-3---3---3---3---|-3---3---3---3---|
G|-0---0---0---0---|-0---0---0---0---|-0---0---0---0---|-0---0---0---0---|
D|-0---0---2---2---|-0---0---2---2---|-0---0---2---2---|-0---0---2---2---|
A|-2---2---3---3---|-2---2---3---3---|-2---2---3---3---|-2---2---3---3---|
E|-3---3-----------|-3---3-----------|-3---3-----------|-3---3-----------|
   G       C/9       G       C/9       G       C/9       G       C/9   
e|-3---3---3---3---|-3---3---3---3---|-3---3---3---3---|-3---3---3---3---|
B|-3---3---3---3---|-3---3---3---3---|-3---3---3---3---|-3---3---3---3---|
G|-0---0---0---0---|-0---0---0---0---|-0---0---0---0---|-0---0---0---0---|
D|-0---0---2---2---|-0---0---2---2---|-0---0---2---2---|-0---0---2---2---|
A|-2---2---3---3---|-2---2---3---3---|-2---2---3---3---|-2---2---3---3---|
E|-3---3-----------|-3---3-----------|-3---3-----------|-3---3-----------|
   G                 C/9               G                 F   
e|-3~~~~~~~~~~~~~~~|-3~~~~~~~~~~~~~~~|-3~~~~~~~~~~~~~~~|-1~~~~~~~~~~~~~~~|
B|-3~~~~~~~~~~~~~~~|-3~~~~~~~~~~~~~~~|-3~~~~~~~~~~~~~~~|-1~~~~~~~~~~~~~~~|
G|-0~~~~~~~~~~~~~~~|-0~~~~~~~~~~~~~~~|-0~~~~~~~~~~~~~~~|-2~~~~~~~~~~~~~~~|
D|-0~~~~~~~~~~~~~~~|-2~~~~~~~~~~~~~~~|-0~~~~~~~~~~~~~~~|-3~~~~~~~~~~~~~~~|
A|-2~~~~~~~~~~~~~~~|-3~~~~~~~~~~~~~~~|-2~~~~~~~~~~~~~~~|-----------------|
E|-3~~~~~~~~~~~~~~~|-----------------|-3~~~~~~~~~~~~~~~|-----------------|


Riff

e|-----------------|-----------------|
B|-----------------|-----------------|
G|-----------------|-----------------|
D|-----3-----3---3-|------3----3---3-|
A|-3h5---3h5---3---|-3h5---3h5---3---|
E|-----------------|-----------------|

Solo
   G                 D                 G                 G 
e|-3---3---3---3---|-2---2---2---2---|-3---3---3---3---|-3---3---3---3---|
B|-3---3---3---3---|-3---3---3---3---|-3---3---3---3---|-3---3---3---3---|
G|-0---0---0---0---|-2---2---2---2---|-0---0---0---0---|-0---0---0---0---|
D|-0---0---0---0---|-0---0---0---0---|-0---0---0---0---|-0---0---0---0---|
A|-2---2---2---2---|-----------------|-2---2---2---2---|-2---2---2---2---|
E|-3---3---3---3---|-----------------|-3---3---3---3---|-3---3---3---3---|
  G                 D                 G                 G 
e|-3---3---3---3---|-2---2---2---2---|-3---3---3---3---|-3---3---3---3---|
B|-3---3---3---3---|-3---3---3---3---|-3---3---3---3---|-3---3---3---3---|
G|-0---0---0---0---|-2---2---2---2---|-0---0---0---0---|-0---0---0---0---|
D|-0---0---0---0---|-0---0---0---0---|-0---0---0---0---|-0---0---0---0---|
A|-2---2---2---2---|-----------------|-2---2---2---2---|-2---2---2---2---|
E|-3---3---3---3---|-----------------|-3---3---3---3---|-3---3---3---3---|

Bridge 
   C/9               G                 C/9               G 
e|-3---3---3---3---|-3---3---3---3---|-3---3---3---3---|-3---3---3---3---|
B|-3---3---3---3---|-3---3---3---3---|-3---3---3---3---|-3---3---3---3---|
G|-0---0---0---0---|-0---0---0---0---|-0---0---0---0---|-0---0---0---0---|
D|-2---2---2---2---|-0---0---0---0---|-2---2---2---2---|-0---0---0---0---|
A|-3---3---3---3---|-2---2---2---2---|-3---3---3---3---|-2---2---2---2---|
E|-----------------|-3---3---3---3---|-----------------|-3---3---3---3---|
   C/9               G                 D                 D                 
e|-3---3---3---3---|-3---3---3---3---|-2-2-2-2-2-2-2-2-|-2-2-2-2---------|
B|-3---3---3---3---|-3---3---3---3---|-3-3-3-3-3-3-3-3-|-3-3-3-3---------|
G|-0---0---0---0---|-0---0---0---0---|-2-2-2-2-2-2-2-2-|-2-2-2-2---------|
D|-2---2---2---2---|-0---0---0---0---|-0-0-0-0-0-0-0-0-|-0-0-0-0---------|
A|-3---3---3---3---|-2---2---2---2---|-----------------|-----------------|
E|-----------------|-3---3---3---3---|-----------------|-----------------|

Chorus 
  G       C/9       G       C/9     G       C/9         G       C/9   
e|-3---3---3---3---|-3---3---3---3---|-3---3---3---3---|-3---3---3---3---|
B|-3---3---3---3---|-3---3---3---3---|-3---3---3---3---|-3---3---3---3---|
G|-0---0---0---0---|-0---0---0---0---|-0---0---0---0---|-0---0---0---0---|
D|-0---0---2---2---|-0---0---2---2---|-0---0---2---2---|-0---0---2---2---|
A|-2---2---3---3---|-2---2---3---3---|-2---2---3---3---|-2---2---3---3---|
E|-3---3-----------|-3---3-----------|-3---3-----------|-3---3-----------|
   G       C/9       G       C/9       G       C/9       G       C/9   
e|-3---3---3---3---|-3---3---3---3---|-3---3---3---3---|-3---3---3---3---|
B|-3---3---3---3---|-3---3---3---3---|-3---3---3---3---|-3---3---3---3---|
G|-0---0---0---0---|-0---0---0---0---|-0---0---0---0---|-0---0---0---0---|
D|-0---0---2---2---|-0---0---2---2---|-0---0---2---2---|-0---0---2---2---|
A|-2---2---3---3---|-2---2---3---3---|-2---2---3---3---|-2---2---3---3---|
E|-3---3-----------|-3---3-----------|-3---3-----------|-3---3-----------|
   G                 C/9               G                 F   
e|-3~~~~~~~~~~~~~~~|-3~~~~~~~~~~~~~~~|-3~~~~~~~~~~~~~~~|-1~~~~~~~~~~~~~~~|
B|-3~~~~~~~~~~~~~~~|-3~~~~~~~~~~~~~~~|-3~~~~~~~~~~~~~~~|-1~~~~~~~~~~~~~~~|
G|-0~~~~~~~~~~~~~~~|-0~~~~~~~~~~~~~~~|-0~~~~~~~~~~~~~~~|-2~~~~~~~~~~~~~~~|
D|-0~~~~~~~~~~~~~~~|-2~~~~~~~~~~~~~~~|-0~~~~~~~~~~~~~~~|-3~~~~~~~~~~~~~~~|
A|-2~~~~~~~~~~~~~~~|-3~~~~~~~~~~~~~~~|-2~~~~~~~~~~~~~~~|-----------------|
E|-3~~~~~~~~~~~~~~~|-----------------|-3~~~~~~~~~~~~~~~|-----------------|


Riff

e|-----------------|-----------------|
B|-----------------|-----------------|
G|-----------------|-----------------|
D|-----3-----3---3-|------3----3---3-|
A|-3h5---3h5---3---|-3h5---3h5---3---|
E|-----------------|-----------------|

Chorus 
  G       C/9       G       C/9     G       C/9         G       C/9   
e|-3---3---3---3---|-3---3---3---3---|-3---3---3---3---|-3---3---3---3---|
B|-3---3---3---3---|-3---3---3---3---|-3---3---3---3---|-3---3---3---3---|
G|-0---0---0---0---|-0---0---0---0---|-0---0---0---0---|-0---0---0---0---|
D|-0---0---2---2---|-0---0---2---2---|-0---0---2---2---|-0---0---2---2---|
A|-2---2---3---3---|-2---2---3---3---|-2---2---3---3---|-2---2---3---3---|
E|-3---3-----------|-3---3-----------|-3---3-----------|-3---3-----------|
   G       C/9       G       C/9       G       C/9       G       C/9   
e|-3---3---3---3---|-3---3---3---3---|-3---3---3---3---|-3---3---3---3---|
B|-3---3---3---3---|-3---3---3---3---|-3---3---3---3---|-3---3---3---3---|
G|-0---0---0---0---|-0---0---0---0---|-0---0---0---0---|-0---0---0---0---|
D|-0---0---2---2---|-0---0---2---2---|-0---0---2---2---|-0---0---2---2---|
A|-2---2---3---3---|-2---2---3---3---|-2---2---3---3---|-2---2---3---3---|
E|-3---3-----------|-3---3-----------|-3---3-----------|-3---3-----------|
   G                 C/9               G                 F   
e|-3~~~~~~~~~~~~~~~|-3~~~~~~~~~~~~~~~|-3~~~~~~~~~~~~~~~|-1~~~~~~~~~~~~~~~|
B|-3~~~~~~~~~~~~~~~|-3~~~~~~~~~~~~~~~|-3~~~~~~~~~~~~~~~|-1~~~~~~~~~~~~~~~|
G|-0~~~~~~~~~~~~~~~|-0~~~~~~~~~~~~~~~|-0~~~~~~~~~~~~~~~|-2~~~~~~~~~~~~~~~|
D|-0~~~~~~~~~~~~~~~|-2~~~~~~~~~~~~~~~|-0~~~~~~~~~~~~~~~|-3~~~~~~~~~~~~~~~|
A|-2~~~~~~~~~~~~~~~|-3~~~~~~~~~~~~~~~|-2~~~~~~~~~~~~~~~|-----------------|
E|-3~~~~~~~~~~~~~~~|-----------------|-3~~~~~~~~~~~~~~~|-----------------|

============================================================================

Extra bits during the chorus

you play this 8x 

e|-1---1-1-0-0-----|
B|-3---3-3-1-1-0---|
G|-0---0-0-0-0-0---|
D|-----------------|
A|-----------------|
E|-----------------|

the solo is 

e|-----------------|-----------------|-----------------|-----------------|
B|-----------------|-----------------|-----------------|-----------------|
G|-----------------|-------------3-4-|-5-5-3------3-4--|-5--5--3---------|
D|---5--5-----3----|-----------------|-------5-5-------|----------5--5---|
A|---------------5-|-5---5----5------|-----------------|-----------------|
E|-----------------|-----------------|-----------------|-----------------|

e|-----------------|-----------------|-----------------|-----------------|
B|-----------------|-----------------|-----------------|-----------------|
G|-----------------|-------------3-4-|-5-5-3------3-4--|---5--5---3--5---|
D|---5--5-----3----|-----------------|-------5-5-------|-----------------|
A|---------------5-|-5---5----5------|-----------------|-----------------|
E|-----------------|-----------------|-----------------|-----------------|

============================================================================
well thats it any questions or suggestions please leave a comment 
============================================================================

            
            
Suggest correction
Creating personal tab
Creating personal tab
You can edit any tab online and save it as your Personal.

You can edit, replace or remove any tab part or add personal notes – all changes will be seen only by you.

Personal tabs can be accessed anytime from any device, even offline.
Learn more »
comments
print report bad tab
guest
You may want to rate the tab now too:
select rating
Wanna post a correction for this tab? Suggest correction