Oops, an error
Loading. Please wait.
We have Chord Pro version of Im A Believer.
It's the closest thing you can get to the original song and it has interactive parts. Check out the tab »
×
494,677 views 1,023 this week
16 commentsread comments
1 2 3 4 5
x 282
add to favorites
launch autoscroll
font size
0
reset
transpose
0
reset
display chords
guitar tuner
backing track
0:00
0:00
Autoscroll
slow
fast
+/-
esc
set tempo
stop
Author
Strumming
There is no strumming pattern for this song yet. and get +5 IQ
-------------------------------------------------------------------------------
                             Monkees - I'm a believer
-------------------------------------------------------------------------------
Tabbed by:Ed Briscombe
Email:edb@xmail.net

Tuning: EADGBE (standard)

Chords:
G: 3 2 0 0 0 3
D: X X 0 2 3 2
C: X 3 2 0 1 0
F: 1 3 3 2 1 1


[Intro]

Guitar 1
e|------1---1---0---0--------------------------------------------------------|
B|------3---3---1---1--------------------------------------------------------|
G|--0---0---0---0---0--------------------------------------------------------|
D|-----------------------------3---------3--------3--------------------------|
A|----------------------3-h--5-----3-h-5-----3-h--5--------------------------|
E|---------------------------------------------------------------------------|

When picking the end riff of guitar intro one pick down on both strings for the first 
for the third pick down then up to account for the smaller gap between the last two
notes (listen to the song for exact timing)

Guitar 2
e|--13---13---12---12---10---------------------------------------------------|
B|--15---15---13---13---12---------------------------------------------------|
G|--12---12---12---12---12---------------------------------------------------|
D|---------------------------------------------------------------------------|
A|---------------------------------------------------------------------------|
E|---------------------------------------------------------------------------|


[Verse 1]

G                       D       G
I thought love was only true in fairy tales
G                 D                G
Meant for someone else but not for me.
C               G
Love was out to get me
C                G
Thats the way it seemed.
C              G              D     Stop.
Disappointment haunted all my dreams.


[Chorus]

For the chorus the strumming pattern is simply down, down-up, down (V V^V). so you play
first chord (G) on the first down strum, and hit the C on the final down strum, and
change chords on the upstroke.
During the chorus Guitar two should play the guitar 2 inro riff over each line of the chorus.

               G   C  G
Then I saw her face,
    C       G     C  G
now Im a believer
C     G     C   G
Not a trace
   C           G    C  G
of doubt in my mind.
C     G(one stroke then mute) C(one stroke)
Im in love,                   ooh
       G(one stroke)     F(one stroke) (Riff below)
Im a believer! I couldnt leave her if I tried.

e|--------------------------------------|
B|-----------3---------3-------3~-------|x2
G|--3-h--5-----3-h-5-----3-h--5---------|
D|--------------------------------------| 

Play this Riff exactly the same as the end of the beggining riff except repeat twice (as indicated).


[Verse 2]

G                  D              G
I thought love was more or less a given thing,
G                D               G
Seems the more I gave the less I got.
C                G
Whats the use in tryin?
C              G
All you get is pain.
C             G              D    Stop.
When I needed sunshine I got rain.


[Chorus]

               G   C  G
Then I saw her face,
    C       G     C  G
now Im a believer
C     G     C   G
Not a trace
   C           G    C  G
of doubt in my mind.
C     G(one stroke then mute) C(one stroke)
Im in love,                   ooh
       G(one stroke)     F(one stroke) (Riff below)
Im a believer! I couldnt leave her if I tried.


[Solo]

The solo for this song is very simple even for a begginer and sounds great when played
the song's chords.

     G         D                  G                    G
e|-------------------------------------------------------|--------------------|
B|-------------------------------------------------------|--------------------|
G|-------------------------------------------------------|--------------------|x2
D|---5--5~--3~--------------3--4--5--5--3--------3--4--5-|-5--3--------3--4---|
A|-------------5--5--5~--5-----------------5--5----------|-------5--5---------|
E|-------------------------------------------------------|--------------------| 

on the second time round the end part is played;

e|---------------------------------------------------------------------------|
B|---------------------------------------------------------------------------|
G|-V The gap here is smaller-------------------------------------------------|
D|--5-3----------------------------------------------------------------------|
A|------5--------------------------------------------------------------------|
E|---------------------------------------------------------------------------|


[Verse 3]

C               G
Love was out to get me
C                G
Thats the way it seemed.
C              G              D     Stop.
Disappointment haunted all my dreams.


[Chorus]

               G   C  G
Then I saw her face,
    C       G     C  G
now Im a believer
C     G     C   G
Not a trace
   C           G    C  G
of doubt in my mind.
C     G(one stroke then mute) C(one stroke)
Im in love,                   ooh
       G(one stroke)     F(one stroke) (Riff below)
Im a believer! I couldnt leave her if I tried.


[Ending]

               G   C  G
Yes I saw her face,
    C       G     C  G
now Im a believer
C     G     C   G
Not a trace
   C           G    C  G
of doubt in my mind.
     C      G     C  G
Said Im a believer
C        G    C  G
I'm a believer
     C      G       C       G
Said Im a believer (Im a believer)
     C      G       C       G
Said Im a believer (Im a believer)


***********************************
| /  slide up
| \  slide down
| H  hammer-on
| p  pull-off
| ~  vibrato
| +  harmonic
| x  Mute note
***********************************
Suggest correction
comments
print report bad tab
16 comments total. Showing first comments.
+1 reply
Robnfguitarplay 42 Jul 15, 2006 06:06 AM

Guitar 1
e|------1---1---0---0-----------------------------------------------|
B|------3---3---1---1-----------------------------------------------|
G|--0---0---0---0---0---------3----3-----------3----3--5------------|
D|----------------------3-h-5---5----5--3-h-5-----5-----------------|
A|------------------------------------------------------------------|
E|------------------------------------------------------------------|

+5 reply
TheRollingStone 72 Jul 27, 2006 08:09 AM

e|------1---1---0---0-----------------------------------------------|
B|------3---3---1---1-----------------------------------------------|
G|--0---0---0---0---0-----------------------------------------------|
D|------------------------3-----3---------3-----3-------------------|
A|--------------------3h5---3h5---3h5-3h5---3h5---3h5---------------|
E|------------------------------------------------------------------|
this is the introduction, otherwise sounds pretty good

+4 reply
halo00zero 31 Nov 02, 2006 02:56 PM

the last chord on the verse is D7. otherwise it is great.

guest
You may want to rate the tab now too:
select rating
Wanna post a correction for this tab? Suggest correction