Oops, an error
Loading. Please wait.

Listen To The Band Bass

version 1
version 1

Whole song

Interactive

64 views 6 this week
no commentswrite comment
1 2 3 4 5
3 more votes to show rating
add to favorites
launch autoscroll
font size
0
reset
guitar tuner
Autoscroll
slow
fast
+/-
esc
set tempo
stop
Author
Difficulty
novice
Tabbed by: 6METAL6BASSIST6
E-mail: petergriffinav@gmail.com

Tuning: EADG

Re-tabbed.

Alternate Stereo Mix.

G|--------------------------------------------------7-7---7-------|
D|9-----8-----7---9-----8-----7---5-------5-----7/9---------9-7---|
A|----------------------------------------------------------------|
E|----------------------------------------------------------------|

0:05

G|--------------------------------------------------7-----7-------|
D|5-------5-------------------------------------7/9---9-----9-7---|
A|----------------5---5-----------7-------7-----------------------|
E|----------------------------------------------------------------|

G|--------------------7---7-------------------------7-7---7-5-----|
D|5-------5---------7-------7-----5-------5---/-9-------------7---|
A|--------------5-------------5-----------------------------------|
E|----------------------------------------------------------------|

G|--------------------------------------------------7-----7-------|
D|5-------5-------------------------------------7/9---9-----9-7---|
A|----------------5---5-----------7-------7-----------------------|
E|----------------------------------------------------------------|

G|--------------------7---7-------------------------7-7---7-------|
D|5-------5---------7-------7-----5-------5-----7/9---------------|
A|--------------5-------------5-----------------------------------|
E|----------------------------------------------------------------|

0:28

G|----------------------------------------------5---5-5-----------|
D|--------------4---4-4---5---6---7-------7---------------7-------|
A|5-------5-------------------------------------------------------|
E|----------------------------------------------------------------|

G|---------------------------------|
D|--------------9--------------7---|
A|7-------7---------10-7---10------|
E|---------------------------------|

G|--------------9---8-----------11--8-----------------------------|
D|9-------9-----------9---9-----------9---9-------9-----8-----7---|
A|----------------------------------------------------------------|
E|----------------------------------------------------------------|

0:40

G|--------------------------------------------------7-----7-------|
D|5-------5-------------------------------------7/9---9-----9-7---|
A|----------------5---5-----------7-------7-----------------------|
E|----------------------------------------------------------------|

G|--------------------7---7-------------------------7-7---7-------|
D|5-------5---------7-------7-----5-------5-----7/9---------9-7---|
A|--------------5-------------5-----------------------------------|
E|----------------------------------------------------------------|

G|--------------------------------------------------7-----7-------|
D|5-------5-------------------------------------7/9---9-----9-7---|
A|----------------5---5-----------7-------7-----------------------|
E|----------------------------------------------------------------|

G|--------------------7---7-------------------------7-7---7-------|
D|5-------5---------7-------7-----5-------5-----7/9---------------|
A|--------------5-------------5-----------------------------------|
E|----------------------------------------------------------------|

1:01

G|----------------------------------------------5---5-------------|
D|--------------4---4-4---5---6---7-------7-----------7---7-------|
A|5-------5-----------------------------------------------------5-|
E|----------------------------------------------------------------|

G|---------------------------------|
D|--------------9--------------7---|
A|7-------7---------10-7---10------|
E|---------------------------------|

G|--------------9---8-----------11--8-----------------------------|
D|9-------9-----------9---9-----------9---9-------9-----8-----7---|
A|----------------------------------------------------------------|
E|----------------------------------------------------------------|

1:14

G|--------------------------------------------------7-----7-------|
D|5-------5-------------------------------------7/9---9-----9-7---|
A|----------------5---5-----------7-------7-----------------------|
E|----------------------------------------------------------------|

G|--------------------7---7-------------------------7-7---7-------|
D|5-------5---------7-------7-----5-------5---/-9-----------9-7---|
A|--------------5-------------5-----------------------------------|
E|----------------------------------------------------------------|

G|--------------------------------------------------7-7---7-------|
D|5-------5-------------------------------------7/9---------9-7---|
A|----------------5---5-----------7-------7-----------------------|
E|----------------------------------------------------------------|

G|--------------------7---7-------------------------7-----|
D|5-------5---------7-------7-----5-------5---/-9-----9-\-|
A|--------------5-------------5---------------------------|
E|--------------------------------------------------------|

G|----------------------------------------------------------------|
D|5---------------------------------------------------------------|
A|----------------------------------------------------------------|
E|----------------------------------------------------------------|



1:51 fades in.

G|--------------------------------------------------7-----7-------|
D|5-------5-------------------------------------7/9---9-----9-7---|
A|----------------5---5-----------7-------7-----------------------|
E|----------------------------------------------------------------|

G|--------------------7---7-------------------------7-7---7-----------------------|
D|5-------5---------7-------7-----5-------5-----7/9-------------------------------|
A|--------------5-------------5---------------------------------------------------|
E|--------------------------------------------------------------------------------|

2:03

G|----------------------------------------------5---5-------------|
D|--------------4---4-4---5---6---7-------7-----------7---7-------|
A|5-------5-------------------------------------------------------|
E|----------------------------------------------------------------|

G|---------------------------------|
D|--------------9--------------7---|
A|7-------7---------10-7---10------|
E|---------------------------------|

G|--------------9---8-----------11--8-----------------------------|
D|9-------9-----------9---9-----------9---9-------9-----8-----7---|
A|----------------------------------------------------------------|
E|----------------------------------------------------------------|

2:16 Until fadeout.

G|--------------------------------------------------7-----7-------|
D|5-------5-------------------------------------7/9---9-----9-7---|
A|----------------5---5-----------7-------7-----------------------|
E|----------------------------------------------------------------|

G|--------------------7---7-------------------------7-7---7-------|
D|5-------5---------7-------7-----5-------5-----7/9---------9-7---|
A|--------------5-------------5-----------------------------------|
E|----------------------------------------------------------------|
Suggest correction
Give kudos to tab author, rate the tab!
1 2 3 4 5
comments
print report bad tab
guest
You may want to rate the tab now too:
select rating
Wanna post a correction for this tab? Suggest correction