Oops, an error
Loading. Please wait.

Little Girl Bass Tab

19 views 1 this week
no commentswrite comment
1 2 3 4 5
3 more votes to show rating
add to favorites
launch autoscroll
font size
0
reset
guitar tuner
Autoscroll
slow
fast
+/-
esc
set tempo
stop
Help us to improve Ultimate-Guitar.com Take our survey!
×
Author
Difficulty
novice
Tabbed by: 6METAL6BASSIST6
E-mail: petergriffinav@gmail.com

Tuning: EADG

G|----------------------------------------------------------------|
D|2-----2---------2-----2---------2-----2---------2-----2---------|
A|------------2-------------2-4---------------2-------------2-4---|
E|----------------------------------------------------------------|

0:06

G|----------------------------------------------------------------|
D|2-----2---------2-----2---------2-----2---------2-----2-----2---|
A|------------2-------------2-4---------------2-------------2-----|
E|----------------------------------------------------------------|

G|----------------------------------------------------------------|
D|6-----6-------------------------6-----6-------------------------|
A|------------6---4-----4---2-4---------------6---4-----4---2-4---|
E|----------------------------------------------------------------|

G|--------------------------------|
D|4-----4-------------------------|
A|------------4---5---------------|
E|--------------------------------|

G|----------------------------------------------------------------|
D|2---------------2-----2---------2-----2---------2-----2---------|
A|------------2-------------2-4---------------2-------------2-4---|
E|----------------------------------------------------------------|

0:24

G|----------------------------------------------------------------|
D|2-----2---------2-----2---------2-----2---------2-----2-----2---|
A|------------2-------------2-4---------------2-------------2-----|
E|----------------------------------------------------------------|

G|----------------------------------------------------------------|
D|6-----6-------------------------6-----6-------------------------|
A|------------6---4-----4---2-4---------------6---4-----4---2-4---|
E|----------------------------------------------------------------|

G|----------------------------------------------------------------|
D|4-----4-------------------------2-----2---------2-----2-2-------|
A|------------4---5-----------------------------2-----------------|
E|----------------------------------------------------------------|

0:40

G|----------------------------------------------------------------|
D|6-----6-6-----------------------6-------6-----------------------|
A|----------------4-----4-4-----------------------4-------4-------|
E|----------------------------------------------------------------|

G|--------------------------------------------------------------------------------|
D|6-------6-----------------------4-4---4---4---4---------------------------------|
A|----------------4-------4-----------------------5-5---5---5-----5---------------|
E|--------------------------------------------------------------------------------|

G|----------------------------------------------------------------|
D|2---------------2-----2---------2-----2---------2-----2---------|
A|------------2-------------2-4---------------2-------------2-4---|
E|----------------------------------------------------------------|

0:57

G|----------------------------------------------------------------|
D|2-----2---------2-----2---------2-----2---------2-----2---------|
A|------------2-------------2-4---------------2-------------2-4---|
E|----------------------------------------------------------------|

G|----------------------------------------------------------------|
D|6-----6-------------------------6-----6-------------------------|
A|------------6---4-----4---2-4---------------6---4-----4---2-4---|
E|----------------------------------------------------------------|

G|----------------------------------------------------------------|
D|4-----4-------------------------2---------------2-----2-2-2-2---|
A|------------4---5---------------------------2-------------------|
E|----------------------------------------------------------------|

1:13

G|----------------------------------------------------------------|
D|6-------6-----------------------6-------6-----------------------|
A|----------------4-----4-4-----------------------4-------4-------|
E|----------------------------------------------------------------|

G|--------------------------------------------------------------------------------|
D|6-------6-----------------------4-4---4---4---4---------------------------------|
A|----------------4-------4-----------------------5-5---5---5---5-5---------------|
E|--------------------------------------------------------------------------------|

G|----------------------------------------------------------------|
D|2---------------2-----2---------2-----2---------2-----2---------|
A|------------2-------------2-4-------------2-2-------------2-4---|
E|----------------------------------------------------------------|

1:31

G|----------------------------------------------------------------|
D|2-----2---------2-----2---------2-----2---------2-----2-----2---|
A|------------2-------------2-4---------------2-------------2-----|
E|----------------------------------------------------------------|

G|----------------------------------------------------------------|
D|6-----6-------------------------6-----6-------------------------|
A|------------6---4-----4---2-4---------------6---4-----4---2-4---|
E|----------------------------------------------------------------|

G|--------------------------------|
D|4-----4-------------------------|
A|------------4---5---------------|
E|--------------------------------|

1:44

G|----------------------------------------------------------------|
D|2---------------2-----2---------2-----2---------2-----2---------|
A|------------2-------------2-4---------------2-------------2-4---|
E|----------------------------------------------------------------|

G|----------------------------------------------------------------|
D|2-----2---------2-----2---------2-----2---------2-----2---------| until fadeout.
A|------------2-------------2-4---------------2-------------2-4---|
E|----------------------------------------------------------------|
Suggest correction
Give kudos to tab author, rate the tab!
1 2 3 4 5
comments
print report bad tab
guest
You may want to rate the tab now too:
select rating
Wanna post a correction for this tab? Suggest correction