Oops, an error
Loading. Please wait.

Look Down bass

34 views 3 this week
no commentswrite comment
1 2 3 4 5
3 more votes to show rating
add to favorites
×
Save as Personal and add changes to this tab that will be seen only by you. Learn more ›
×
You can save this tab as Personal to edit and correct it or add notes. All changes will be seen only by you. Learn more »
launch autoscroll
font size
0
reset
guitar tuner
edit
Autoscroll
slow
fast
+/-
esc
set tempo
stop
Tabbed by: 6METAL6BASSIST6
E-mail: petergriffinav@gmail.com

Tuning: EADG

G|----------------------------------------------------------------|
D|----------------------------2---3---3---3---3-3-3---3---3---4---|
A|5---5---5---5-5-5---5---5---------------------------------------|
E|----------------------------------------------------------------|

G|----------------------------------------------------7---7-------|
D|5---5---5---5-5-5---5---5---7-------------------7/9---------9-7-|
A|--------------------------------5---5---5---5-------------------|
E|----------------------------------------------------------------|

G|----------------------------------------------------------------|
D|----------------------------2---3---3---3---3-3-3---3---3---4---|
A|5---5---5---5-5-5---5---5---------------------------------------|
E|----------------------------------------------------------------|

G|------------------------------------------------9-7-7-----------|
D|5---5---5---5---5---5---5---7---------------------------9---7---|
A|--------------------------------5---5---5---5-------------------|
E|----------------------------------------------------------------|

0:18

G|----------------------------------------------------------------|
D|------------------------5-------------------------------5-------|
A|5-------5---3-------3-----------5-------5---3-------3-----------|
E|----------------------------------------------------------------|

G|--------------------------------------------------------7-------|
D|------------------------5-------5---3---2-----------7-9-----9-7-|
A|5-----------3-------3-----------------------5-------------------|
E|----------------------------------------------------------------|

G|----------------------------------------------------------------|
D|----------------------------------------------------------------|
A|5-----------5---5-----------5---5---5-------5---5-----5-5---5---|
E|----------------------------------------------------------------|

G|--------------------------------------------------------------------------------|
D|5-----------5---3-----------3---2---2---/---5---------------5---5---5---5---7---|
A|--------------------------------------------------------------------------------|
E|--------------------------------------------------------------------------------|

0:34

G|----------------------------------------------------------------|
D|----------------------------------------------------------------|
A|5-----------5-----5---------5---7---4-------7-----7-5---4-------|
E|----7---5-----------7---5---------------7-------------------7---|

G|----------------------------------------------------------------|
D|------------7-------7---5-------4-----------4-----------4-------|
A|----4---7---------------------------------------4---------------|
E|5---------------------------------------------------------------|

G|----------------------------------------------------------------|
D|5-----------5-------------------5---5-------5-------------------|
A|----------------5-----------5-------------------5-----5-4-------|
E|------------------------------------------------------------7---|

G|----------------------------------------------------------------|
D|--------------------------------------------------------7-------|
A|----------------------------------------------------7-------7---|
E|5-----------5---5---5-------5---5---5-------5---5---------------|

0:56

G|----------------------------------------------------------------|
D|------------------------5-------------------------------5-------|
A|5-----------3-------3-----------5-----------3-------3-----------|
E|----------------------------------------------------------------|

G|--------------------------------------------------------7-------|
D|------------------------5-------5---4---------------7/9-----9-7-|
A|5-----------3-------3---------5---------7---5-----5-------------|
E|----------------------------------------------------------------|

G|----------------------------------------------------------------|
D|------------------------------------------------------------2---|
A|5-----------5---5-----------5---5---5-------5---5-------5-------|
E|------------------------------------------------------5---------|

G|--------------------------------------------------------------------7-----------|
D|5-----------5---3-----------3---2---2-------5---------------5---5-------5---7---|
A|--------------------------------------------------------------------------------|
E|--------------------------------------------------------------------------------|

1:08

G|----------------------------------------------------------------|
D|----------------------------------------------------------------|
A|5-----------5-----5---------5---7---4-------7-----7-5---4-------|
E|----7---5-----------7---5---------------7-------------------7---|

G|----------------------------------------------------------------|
D|------------7-------7---5-------4-----------4-----------4-------|
A|----4---7---------------------------------------4---------------|
E|5---------------------------------------------------------------|

G|----------------------------------------------------------------|
D|5---5-------5-------------------5---5-------5-------------------|
A|----------------5-----------5-------------------5-----5-4-------|
E|------------------------------------------------------------7---|

G|----------------------------------------------------------------|
D|--------------------------------------------------------7-------|
A|----------------------------------------------------7-------7---|
E|5-----------5---5-----------5---5---5-------5---5---------------|

1:29

G|----------------------------------------------------------------|
D|----------------------------------------------------------------|
A|8---------------7---------------6---------------5---------------|
E|----------------------------------------------------------------|

G|----------------------------------------------------------------|
D|----------------5---------------5---3---2-----------------------|
A|8-------------------------------------------5-----5-5-----------|
E|--------------------------------------------------------5---7---|

G|------------7---------------7---------------7---------------7---|
D|----------------------------------------------------------------|
A|5---------------5---------------5---5-----------5---------------|
E|----------------------------------------------------------------|

G|------------7-------------------|
D|--------------------------------|
A|5---------------5-----------5---|
E|--------------------------------|

G|----------------------------------------------------------------|
D|3-------3---5-----------5---5---5---5---5---5-5-5-------5---7---|
A|----5-----------------------------------------------5-----------|
E|----------------------------------------------------------------|

1:41

G|----------------------------------------------------------------|
D|----------------------------5---3---3---3---3-3-3---3---3---4---|
A|5-------5-----5-5---5---5---------------------------------------|
E|----------------------------------------------------------------|

G|----------------------------------------------------7---7-------|
D|5---5---5---5-5-5---5---5---7-------------------7-9---------9-7-|
A|--------------------------------5---5---5---5-------------------|
E|----------------------------------------------------------------|

G|----------------------------------------------------------------|
D|----------------------------2---3---3---3---3-3-3-----------3---|
A|5---5---5---5-5-5---5---5-------------------------------3-------|
E|----------------------------------------------------5-----------|

G|----------------------------------------------/-9---7-----------|
D|5---5---5---5---5---5---5---7---------------------------9---7---|
A|--------------------------------5---5---5---5-------------------|
E|----------------------------------------------------------------|

1:57

G|----------------------------------------------------------------|
D|------------------------5-------------------------------5-------|
A|5-------5---3-------3-----------5-------5---3-------3-----------|
E|----------------------------------------------------------------|

G|--------------------------------------------------------7-------|
D|------------------------5-------5---4---------------7-9-----9-7-|
A|5-------5---3-------3---------5---------7---5-------------------|
E|----------------------------------------------------------------|

G|----------------------------------------------------------------|
D|------------------------------------------------------------2---|
A|5-----------5---5-----------5---5---5-------5---5-----5-5-------|
E|----------------------------------------------------------------|

G|--------------------------------------------------------7-----------------------|
D|5-----------5---3-----------3---2---2---/---5---------------5---5---5-5-5---7---|
A|--------------------------------------------------------------------------------|
E|--------------------------------------------------------------------------------|

2:13

G|----------------------------------------------------------------|
D|----------------------------------------------------------------|
A|5-----------5-----5---------5---7---4-------7-----7-5---4-------|
E|----7---5-----------7---5---------------7-------------------7---|

G|----------------------------------------------------------------|
D|------------7-------7---5-------4-----------4-----------4-------|
A|----4---7---------------------------------------4---------------|
E|5---------------------------------------------------------------|

G|----------------------------------------------------------------|
D|5-----------5-------------------5---5-------5-------------------|
A|----------------5-----------5-------------------5-----5-5---5---|
E|----------------------------------------------------------------|

G|----------------------------------------------------------------|
D|5-------------------------------5-------------------------------|
A|----2---3---4---5-----------5-------2---3---4---5---5-----------|
E|--------------------2---5-------------------------------5---7---|

2:29

G|----------------------------------------------------------------|
D|----------------------------2---3-------3---3---3---3---3---4---|
A|5-------5---5-5-5---5---5---------------------5-----------------|
E|----------------------------------------------------------------|

G|------------------------------------------------11-9-7-----------|
D|5-------5---5-5-5---5---5---7----------------------------9-7-----|
A|--------------------------------5---5---5---5----------------9---|
E|-----------------------------------------------------------------|

G|----------------------------------------------------------------|
D|----------------------------2---3---3---3---3-3-3---3---3---4---|
A|5---5---5---5-5-5---5---5---------------------------------------|
E|----------------------------------------------------------------|

G|--------------------------------------------------------|
D|5---5---5---5-5-5-----------5-------5---5---------------|
A|------------------0-2---5-------5-----------5-------5---|
E|--------------------------------------------------------|

            
            
Suggest correction
Creating personal tab
Creating personal tab
You can edit any tab online and save it as your Personal.

You can edit, replace or remove any tab part or add personal notes – all changes will be seen only by you.

Personal tabs can be accessed anytime from any device, even offline.
Learn more »
Give kudos to tab author, rate the tab!
1 2 3 4 5
comments
print report bad tab
guest
You may want to rate the tab now too:
select rating
Wanna post a correction for this tab? Suggest correction