Oops, an error
Loading. Please wait.

Love To Love bass

25 views 1 this week
no commentswrite comment
1 2 3 4 5
3 more votes to show rating
add to favorites
×
Save as Personal and add changes to this tab that will be seen only by you. Learn more ›
×
You can save this tab as Personal to edit and correct it or add notes. All changes will be seen only by you. Learn more »
launch autoscroll
font size
0
reset
guitar tuner
edit
Autoscroll
slow
fast
+/-
esc
set tempo
stop
Author
Difficulty
Tabbed by: 6METAL6BASSIST6
E-mail: petergriffinav@gmail.com

Tuning: 1/2 step up.

G|---------------------------------------------------------------------------|
D|---------------------------------------------------------------------------|
A|---------------------------------------------------------------5---3-------|
E|-----------------------------------------------------------------------5---|

G|----------------------------------------------------------------|
D|----------------------------------------------------------------|
A|----------------------------------------------------------------|
E|------------5---5-----------0---5-----------5---------------0---|

0:08

G|----------------------------------------------------------------|
D|----------------------------------------------------------------|
A|----------------------------------------------------------------|
E|5-----------5-------------------5-----------5---------------5---|

G|----------------------------------------------------------------|
D|----------------------------------------------------------------|
A|----------------------------------------------------------------|
E|----------------5-----------0---5-----------5---------------5---|

G|----------------------------------------------------------------|
D|----------------------------------------------------------------|
A|5-----------5-------------------5-----------5---------------7---|
E|----------------------------------------------------------------|

0:18

G|----------------------------------------------------------------|
D|----------------------------------------------------------------|
A|----------------------------------------------------------------|
E|5-----------5---------------0---5-----------5---------------5---|

G|----------------------------------------------------------------|
D|----------------------------------------------------------------|
A|----------------------------------------------------------------|
E|------------5---------------0---5-----------5---------------5---|

G|----------------------------------------------------------------|
D|----------------------------------------------------------------|
A|5-----------5-------------------3-----------5-------5---7---5---|
E|----------------------------------------------------------------|

0:30

G|----------------------------------------------------------------|
D|5-----------5-------------------------------------------5-------|
A|----------------3-----------3---5---5-------5-------7-------7---|
E|----------------------------------------------------------------|

G|----------------------------------------------------------------|
D|5-----------5---------------------------------------------------|
A|----------------3-----------5---------------5-------5---7-5-----|
E|------------------------------------------------------------7---|

G|----------------------------------------------------------------|
D|----------------------------------------------------------------|
A|--------------------------------3-----------3-------------------|
E|3-----------3---------------3-------------------------------5---|

G|----------------------------------------------------------------|
D|----------------------------------------------------------------|
A|5-----------5-------------------3-------------------------------|
E|----------------------------------------------------------------|

0:44

G|----------------------------------------------------------------|
D|----------------------------------------------------------------|
A|7-----------7-------------------5-----------5-----------5---6---|
E|----------------------------7-----------------------5-----------|

G|----------------------------------------------------------------|
D|----------------------------------------------------------------|
A|7-----------7-------------------5-----------5-------5---2-------|
E|----------------------------7-------------------------------3---|

0:51

G|----------------------------------------------------------------|
D|----------------------------------------------------------------|
A|----------------------------------------------------------------|
E|5-----------5-------------------5-----------5---------------5---|

G|----------------------------------------------------------------|
D|----------------------------------------------------------------|
A|----------------------------------------------------------------|
E|----------------5-----------0---5-----------5---------------5---|

G|----------------------------------------------------------------|
D|----------------------------------------------------------------|
A|5-----------5-------------------5-----------5---------------7---|
E|----------------------------5-----------------------------------|

1:03

G|----------------------------------------------------------------|
D|----------------------------------------------------------------|
A|----------------------------------------------------------------|
E|5-----------5---5-----------0---5-----------5---------------5---|

G|----------------------------------------------------------------|
D|--------------------------------------------------------7-------|
A|------------------------------------------------------------5---|
E|----------------5-----------0---5-----------5-------------------|

G|----------------------------------------------------------------|
D|----------------------------------------------------------------|
A|5-----------5-------------------3-----------5-------5---7---5---|
E|----------------------------------------------------------------|

1:12

G|----------------------------------------------------------------|
D|5-----------5-------------------------------------------5-------|
A|----------------3-----------3---5-----------5-------7-------7---|
E|----------------------------------------------------------------|

G|----------------------------------------------------------------|
D|5---------------------------------------------------------------|
A|------------5---3---------------5-----------5---5---5-----5-----|
E|----------------------------5-------------------------------7---|

G|----------------------------------------------------------------|
D|----------------------------------------------------------------|
A|--------------------------------3-----------3-------------------|
E|3-----------3-----------------------------------------------5---|

G|----------------------------------------------------------------|
D|----------------------------------------------------------------|
A|5-----------5---5---------------3-------------------------------|
E|----------------------------------------------------------------|

1:26

G|----------------------------------------------------------------|
D|----------------------------------------------------------------|
A|7-----------7-------------------5-----------5-----------5---6---|
E|----------------------------7-----------------------5-----------|

G|----------------------------------------------------------------|
D|----------------------------------------------------------------|
A|7-----------7-------------------5-----------5-------5---2-------|
E|----------------------------7-------------------------------3---|

1:34

G|----------------------------------------------------------------|
D|----------------------------------------------------------------|
A|----------------------------------------------------------------|
E|5-----------5---------------0---5-----------5---------------5---|

G|----------------------------------------------------------------|
D|----------------------------------------------------------------|
A|----------------------------------------------------------------|
E|------------5---5-----------0---5-----------5-------5-------5---|

G|----------------------------------------------------------------|
D|----------------------------------------------------------------|
A|5-----------5-------------------5-----------5-----------5---7---|
E|----------------------------5-----------------------5-----------|

1:46

G|----------------------------------------------------------------|
D|----------------------------------------------------------------|
A|----------------------------------------------------------------|
E|5-----------5---5-----------0---5-----------5---------------5---|

G|----------------------------------------------------------------|
D|----------------------------------------------------------------|
A|--------------------------------------------------------7-------|
E|5---------------5-----------0---5-----------5-------5-------5---|

G|----------------------------------------------------------------|
D|----------------------------------------------------------------|
A|5-----------5---5-----------5---3---3-------5-------5---7---5---|
E|----------------------------------------------------------------|

1:54

G|----------------------------------------------------------------|
D|5-----------5---------------------------------------------------|
A|----------------3---------------5-----------5-------5---7---5---|
E|----------------------------5-----------------------------------|

G|----------------------------------------------------------------|
D|5---------------------------------------------------------------|
A|------------5---3-----------5---------------5-------5---7-5-----|
E|------------------------------------------------------------7---|

G|----------------------------------------------------------------|
D|----------------------------------------------------------------|
A|--------------------------------3-----------3-------------------|
E|3-----------3-----------------------------------------------5---|

G|----------------------------------------------------------------|
D|----------------------------------------------------------------|
A|5-----------5---5---------------3-------------------------------|
E|----------------------------------------------------------------|

2:09

G|----------------------------------------------------------------|
D|----------------------------------------------------------------|
A|7-----------7-------------------5-------------------5-------6---|
E|----------------------------7---------------5-------------------|

G|----------------------------------------------------------------|
D|----------------------------------------------------------------| x2
A|7-----------7-------------------5-----------5-----------5---6---|
E|----------------------------7-----------------------5-----------|

G|----------------------------------------------------------------|
D|----------------------------------------------------------------|
A|7-----------7-------------------5-----------5-----------5-------|
E|----------------------------7-----------------------7-------7---|

G|----------------------------------------------------------------|
D|----------------------------------------------------------------| fades out here.
A|----------------------------7---5-----------5-----------5---6---|
E|0-----------0---------------------------------------5-----------|
Suggest correction
Creating personal tab
Creating personal tab
You can edit any tab online and save it as your Personal.

You can edit, replace or remove any tab part or add personal notes – all changes will be seen only by you.

Personal tabs can be accessed anytime from any device, even offline.
Learn more »
Give kudos to tab author, rate the tab!
1 2 3 4 5
comments
print report bad tab
guest
You may want to rate the tab now too:
select rating
Wanna post a correction for this tab? Suggest correction