Oops, an error
Loading. Please wait.

Me And Magdalena bass

190 views 6 this week
no commentswrite comment
1 2 3 4 5
3 more votes to show rating
add to favorites
×
Save as Personal and add changes to this tab that will be seen only by you. Learn more ›
×
You can save this tab as Personal to edit and correct it or add notes. All changes will be seen only by you. Learn more »
launch autoscroll
font size
0
reset
guitar tuner
edit
Autoscroll
slow
fast
+/-
esc
set tempo
stop
Author
Difficulty
Tabbed by: 6METAL6BASSIST6
E-mail: petergriffinav@gmail.com

Tuning: EADG

0:09

G|----------------------------------------------------------------|
D|----------------------------------------------------------------|
A|10--------------------------10--10------------------------------|
E|------------------------------------------------8-------8-------|

G|----------------------------------------------------------------|
D|----------------------------------------------------------------|
A|10--------------------------10--10------------------------------|
E|----------------------------------------------------------------|

0:18

G|----------------------------------------------------------------|
D|----------------------------------------------------------------|
A|----------------------------------------------------------------|
E|8-----------8---8---------------8-----------8---8---------------|

G|----------------------------------------------------------------|
D|----------------------------------------------------------------|
A|----------------------------------------------------------------|
E|7-----------7---7---------------7-----------7---7-------7-\-----|

G|----------------------------------------------------------------|
D|----------------------------------------------------------------|
A|------------------------------------------------3-------3-------|
E|3-----------3---3---------------3-----------3-------------------|

G|----------------------------------------------------------------|
D|----------------------------------------------------------------|
A|----------------------------------------------------------------|
E|3-----------3---3---------------3-----------3---3-----------/---|

0:34

G|----------------------------------------------------------------|
D|----------------------------------------------------------------|
A|----------------------------------------------------------------|
E|8-----------8---8---------------8-----------8---8---------------|

G|----------------------------------------------------------------|
D|----------------------------------------------------------------|
A|----------------------------------------------------------------|
E|7-----------7---7---------------7-----------7---7-------\-------|

G|----------------------------------------------------------------|
D|----------------------------------------------------------------|
A|------------------------------------------------3-------3-------|
E|3-----------3---3---------------3-----------3-------------------|

G|----------------------------------------------------------------|
D|--------------------------------------------------------5-------|
A|----------------------------------------------------------------|
E|3-----------3---3---------------3-----------3---3---------------|

0:51

G|----------------------------------------------------------------|
D|----------------------------------------------------------------|
A|5-----------5---5---------------3-----------3---3---------------|
E|----------------------------------------------------------------|

G|----------------------------------------------------------------|
D|--------------------------------------------------------5-------|
A|----------------------------------------------------------------|
E|3-----------3---3---------------3-----------3---3---------------|

G|----------------------------------------------------------------|
D|----------------------------------------------------------------|
A|5-----------5---5---------------3---------------------------/---|
E|----------------------------------------------------------------|

G|----------------------------------------------------------------|
D|----------------------------------------------------------------|
A|10----------10--10--------------10----------10------------------|
E|------------------------------------------------8-------8-------|

G|----------------------------------------------------------------|
D|----------------------------------------------------------------|
A|10----------10--10--------------10----------10--10--------------|
E|----------------------------------------------------------------|

1:22

G|----------------------------------------------------------------|
D|----------------------------------------------------------------|
A|----------------------------------------------------------------|
E|8-----------8---8---------------8-----------8---8---------------|

G|----------------------------------------------------------------|
D|----------------------------------------------------------------|
A|----------------------------------------------------------------|
E|7-----------7---7---------------7-----------7---7---------------|

G|----------------------------------------------------------------|
D|----------------------------------------------------------------|
A|------------------------------------------------3-------3-------|
E|3-----------3---3---------------3-----------3-------------------|

G|----------------------------------------------------------------|
D|----------------------------------------------------------------|
A|----------------------------------------------------------------|
E|3-----------3---3---------------3-----------3---3-------3-----/-|

1:27

G|----------------------------------------------------------------|
D|----------------------------------------------------------------|
A|----------------------------------------------------------------|
E|8-----------8---8---------------8-----------8---8---------------|

G|----------------------------------------------------------------|
D|----------------------------------------------------------------|
A|----------------------------------------------------------------|
E|7-----------7---7---------------7-----------7---7-----------\---|

G|----------------------------------------------------------------|
D|----------------------------------------------------------------|
A|------------------------------------------------3-------3-------|
E|3-----------3---3---------------3-----------3-------------------|

G|----------------------------------------------------------------|
D|----------------------------------------------------------------|
A|----------------------------------------------------------------|
E|3-----------3---3---------------3-----------3---3-------3-------|

1:45

G|----------------------------------------------------------------|
D|----------------------------------------------------------------|
A|5-----------5---5---------------3-----------3---3---------------|
E|----------------------------------------------------------------|

G|----------------------------------------------------------------|
D|----------------------------------------------------------------|
A|----------------------------------------------------------------|
E|3-----------3---3---------------3-----------3---3-------3-------|

G|----------------------------------------------------------------|
D|----------------------------------------------------------------|
A|5-----------5---5---------------3-----------3---3---------------|
E|----------------------------------------------------------------|

G|----------------------------------------------------------------|
D|----------------------------------------------------------------|
A|--------------------------------------------------------9-------|
E|3-----------3---3---------------3-----------3-/-15--------------|

2:01

G|----------------------------------------------------------------|
D|----------------------------------------------------------------|
A|7-----------7---7---------------3-----------3---3---------------|
E|----------------------------------------------------------------|

G|----------------------------------------------------------------|
D|--------------------------------------------------------5-------|
A|----------------------------------------------------------------|
E|3-----------3---3---------------3-----------3---3---------------|

G|----------------------------------------------------------------|
D|----------------------------------------------------------------|
A|5-----------5---5---------------3-----------3---3-------------/-|
E|----------------------------------------------------------------|

G|----------------------------------------------------------------|
D|----------------------------------------------------------------|
A|10----------10--10--------------10----------10------------------|
E|------------------------------------------------8-------8-------|

G|----------------------------------------------------------------|
D|----------------------------------------------------------------|
A|10----------10--10--------------10----------10--10--------------|
E|----------------------------------------------------------------|

2:22

G|----------------------------------------------------------------|
D|----------------------------------------------------------------|
A|----------------------------------------------------------------|
E|8---------------------------------------------------------------|

G|----------------------------------------------------------------|
D|----------------------------------------------------------------|
A|----------------------------------------------------------------|
E|----------------------------------------------------------------|

G|----------------------------------------------------------------|
D|----------------------------------------------------------------|
A|----------------------------------------------------------------|
E|----------------------------------------------------------------|

G|----------------------------------------------------------------|
D|----------------------------------------------------------------| x2
A|10--------------------------------------------------------------|
E|------------------------------------------------------------10--|

G|----------------------------------------------------------------|
D|----------------------------------------------------------------| x2
A|10--------------------------------------------------------------|
E|----------------------------------------------------------------|

G|----------------------------------------------------------------|
D|----------------------------------------------------------------|
A|10----------------------------------10--10--10--10--10--10--9---|
E|----------------------------------------------------------------|

2:55

G|----------------------------------------------------------------|
D|----------------------------------------------------------------|
A|5-----------5---5---------------3-----------3---3---------------|
E|----------------------------------------------------------------|

G|----------------------------------------------------------------|
D|----------------------------------------------------------------|
A|----------------------------------------------------------------|
E|3-----------3---3---------------3-----------3---3---------------|

G|----------------------------------------------------------------|
D|----------------------------------------------------------------|
A|5-----------5---5---------------3-----------3---3---------------|
E|----------------------------------------------------------------|

G|----------------------------------------------------------------|
D|----------------------------------------------------------------|
A|----------------------------------------10------10------9-------|
E|3-----------3---3-----------/---15------------------------------|

3:14

G|----------------------------------------------------------------|
D|----------------------------------------------------------------|
A|7-----------7---7---------------3-----------3---3---------------|
E|----------------------------------------------------------------|

G|----------------------------------------------------------------|
D|--------------------------------------------------------5-------|
A|----------------------------------------------------------------|
E|3-----------3---3---------------3-----------3---3---------------|

G|----------------------------------------------------------------|
D|----------------------------------------------------------------|
A|5-----------5---5---------------3-------------------------------|
E|----------------------------------------------------------------|

G|--------------------------------|
D|--------------------------------|
A|--------------------------------|
E|--3-----------------------------|

************************************

| /  Slide up
| \  Slide down

************************************

            
            
Suggest correction
Creating personal tab
Creating personal tab
You can edit any tab online and save it as your Personal.

You can edit, replace or remove any tab part or add personal notes – all changes will be seen only by you.

Personal tabs can be accessed anytime from any device, even offline.
Learn more »
Give kudos to tab author, rate the tab!
1 2 3 4 5
comments
print report bad tab
guest
You may want to rate the tab now too:
select rating
Wanna post a correction for this tab? Suggest correction