Oops, an error
Loading. Please wait.

Michigan Blackhawk Bass Tab

16 views 1 this week
no commentswrite comment
1 2 3 4 5
3 more votes to show rating
add to favorites
launch autoscroll
font size
0
reset
guitar tuner
Autoscroll
slow
fast
+/-
esc
set tempo
stop
Help us to improve Ultimate-Guitar.com Take our survey!
×
Author
Difficulty
novice
Tabbed by: 6METAL6BASSIST6
E-mail: petergriffinav@gmail.com

Tuning: 1/4 step down.

G|--------------------------------------------|
D|--------------------------------------------|
A|--------------------------------------------|
E|--------------------------------------------|

G|----------------------------------------------------------------|
D|--------3---------------3---------------3---------------3-------|
A|5-------------5-5-------------5-5-------------5-5-------------5-|
E|----------------------------------------------------------------|

G|----------------------------------------------------------------|
D|--------3-------------------------------------------------------|
A|5-------------5-5-----------------------------------------------|
E|--------------------3---4---5-----------------------------------|

0:11

G|----------------------------------------------------------------|
D|----------------------------------------------------------------|
A|5-------------------5-------6---7-------------------7-------7---|
E|--------------5-5-----------------------------7-7---------------|

G|----------------------------------------------------------------|
D|5-------5---------------5---5-----------5---5-------6-------7---|
A|----------------5---7---------------5---------------------------|
E|----------------------------------------------------------------|

G|----------------------------------------------------------------|
D|----------------------------------------------------------------|
A|5-------5-----------5-------6---7-------7-----------7-------7---|
E|--------------5-5-----------------------------7-7---------------|

G|----------------------------------------------------------------|
D|5-------5-------------------------------------------------------|
A|----------------5---5-------3---------------3-------3-------3---|
E|------------------------------------3---5-----------------------|

0:27

G|----------------4-----------4---------------------------4-------|
D|------/-4-----------7---4-----------7---4-----------4-----------|
A|2---2---------------------------------------2-------------------|
E|----------------------------------------------------------------|

G|----------------------------------------------------------------|
D|2---------------------------5-----------------------5-----------|
A|----5---2---------------7-----------2---3---4---5---------------|
E|------------0-------7-------------------------------------------|

G|------------7---7---7-----------------------------------7-----/-|
D|--------7/9-------------9---7-----------4---5---6---7-----------|
A|5-------------------------------5-------------------------------|
E|----------------------------------------------------------------|

0:38

G|9---9---9---9---9---7-------------------------------9-----------|
D|------------------------9-----------6---7---8---9---------/-7---|
A|----------------------------7-----------------------------------|
E|----------------------------------------------------------------|

G|----------------------------------------------------------------|
D|----7-------------------5---7-------5---------------7-------7---|
A|--------4---5---6---7-------------------7-----------------------|
E|--------------------------------------------5-------------------|

0:46

G|----------------------------------------------------------------|
D|--------------7-------------7---------------7---9---7-----------|
A|5---------------5---5-----------5-----/-9---------------9-------|
E|------------------------------------------------------------5---|

G|----------------------------------------------------------------|
D|--------------------5-------7-------5---------------------------|
A|----------------5-----------------------7-----------------------|
E|3-----------7-------------------------------5-------------------|

G|--------------------------------|
D|--------------------------------|
A|--------------------------------|
E|--------------------------------|

G|----------------------------------------------------------------|
D|--------3---------------3---------------3---------------3-------|
A|5-------------5-5-------------5-5-------------5-5-------------5-|
E|----------------------------------------------------------------|

G|----------------------------------------------------------------|
D|--------3-------------------------------------------------------|
A|5-------------5-5-----------------------------------------------|
E|--------------------3---4---5-----------------------------------|

1:05

G|----------------------------------------------------------------|
D|----------------------------------------------------------------|
A|5-------5-----------5-------6---7-------7-----------7-------7---|
E|----------------5-------------------------------7---------------|

G|--------------------------------------------7---7---------------|
D|5-------5-----------5-------5-----------7/9-------------9---7---|
A|----------------5---------------5-------------------------------|
E|----------------------------------------------------------------|

G|----------------------------------------------------------------|
D|----------------------------------------------------------------|
A|5-------5-----------5-------6---7-------7-----------7-------7---|
E|----------------5-------------------------------7---------------|

G|--------------------------------------------7---------------7---|
D|5-------5-----------5-------5-----------7/9-----9---7-----------|
A|----------------5---------------5-------------------------------|
E|----------------------------------------------------------------|

1:21

G|----------------------------------------------------------------|
D|------------------------5---------------------------------------|
A|--------2---3---4---5-------3-----------------------5---3---3---|
E|3---3-------------------------------0---1---2---3---------------|

G|----------------4-----------4---------------------------4-------|
D|------/-4---7-------7---------------7---4-----------4-------4---|
A|2---2---------------------------------------2-------------------|
E|----------------------------------------------------------------|

G|----------------------------------------------------------------|
D|2---2---------------------------------------5-------7---9-------|
A|--------5---2---------------------------5-------------------5---|
E|----------------0---5---5---3-------7---------------------------|

G|------------7---7---7-----------7-------------------------------|
D|--------7/9-------------9---7-------9---7-----------------------|
A|5-------------------------------------------5-----------5-------|
E|----------------------------------------------------------------|

1:37

G|------------7---9---7---9---9-------7---------------------------|
D|------/-9-------------------------------9-----------9-----------|
A|7---7---------------------------------------7-----------7---5---|
E|----------------------------------------------------------------|

G|----------------------------------------------------------------|
D|7---7-------------------5---7-------5---------------7-----------|
A|--------4---5---6---7-------------------7-----------------------|
E|--------------------------------------------5---------------5---|

1:45

G|----------------------------------------------------------------|
D|--------7-----------7---------------4---5---7-/-9---9---7-------|
A|5---5-----------5-------5-------5-------------------------------|
E|------------------------------------------------------------5---|

G|----------------------------------------------------------------|
D|--------------------5-------7-------5---------------------------|
A|----2---3---4---5-----------------------7-----------------------|
E|3-------------------------------------------5-----------5-------|

G|--------------------------/-14------14--14--14--14--12----------|
D|------/-7---7---7---7-----------------------------------14------|
A|----------------------------------------------------------------|
E|5-----------------------------------------------------------5---|

1:57

G|----------------------------------------------------------------|
D|--------------7-------------2-------------------------------5---|
A|5-------5-------5---5---5-----------5---2---------------7-------|
E|--------------------------------------------0-------7-----------|

G|--------------------------------------------7---7-7-------------|
D|------------------------2---------------7/9---------9---7-------|
A|--------2---3---4---5-------5-------5---------------------------|
E|----3-----------------------------------------------------------|

G|--------------------9---9---7---9---7---------------------------|
D|----------------7/9---------------------9-----------9-------5---|
A|5-------5-----------------------------------7-----------7-------|
E|----------------------------------------------------------------|

G|----4---5---6---7---------------------------------------7---|
D|--------------------5---7---------------4---5---6---7-------| fades out here.
A|----------------------------5-------5-----------------------|
E|------------------------------------------------------------|
Suggest correction
Give kudos to tab author, rate the tab!
1 2 3 4 5
comments
print report bad tab
guest
You may want to rate the tab now too:
select rating
Wanna post a correction for this tab? Suggest correction