Oops, an error
Loading. Please wait.

Never Tell A Woman Yes bass

118 views 1 this week
no commentswrite comment
1 2 3 4 5
3 more votes to show rating
add to favorites
×
Save as Personal and add changes to this tab that will be seen only by you. Learn more ›
×
You can save this tab as Personal to edit and correct it or add notes. All changes will be seen only by you. Learn more »
launch autoscroll
font size
0
reset
guitar tuner
edit
Autoscroll
slow
fast
+/-
esc
set tempo
stop
Author
Difficulty
Tabbed by: 6METAL6BASSIST6
E-mail: petergriffinav@gmail.com

Tuning: 1/4 step up.

Re-tabbed.

G|------------------------------0/5---|
D|------------------------------------|
A|------------------------------------|
E|------------------------------------|

G|----------------------------------------------------------------|
D|--------5-----------------9-----7---------------7---------------|
A|3---------------3-/-7-------------------7---------------7---6---|
E|----------------------------------------------------------------|

G|------------------------------------9-----10----11----12--------|
D|--------4-------5-------7---9---10--------------------------12--|
A|5---------------------------------------------------------------|
E|----------------------------------------------------------------|

G|----------------------------------------------------------------|
D|10----------------------9-------7---------------7---------------|
A|--------10--\---7-----------------------7-------------------4---|
E|--------------------------------------------------5-----7-------|

G|----------------------------------------------------2---4---5---|
D|--------4-------5-------------5-----2---3---4---5---------------|
A|5-----------------------5-------3-------------------------------|
E|----------------------------------------------------------------|

0:21

G|----------------------------------------------------------------|
D|--------5---------------5-------7---------------7-----7---------|
A|3---------------3-----------------------7---------------7-------|
E|----------------------------------------------------------------|

G|----------------------------------------------------------------|
D|3---------------5-----------------------2-----3-----4---5-------|
A|--------3---------------5-------3---------------------------5---|
E|----------------------------------------------------------------|

G|----------------------------------------------------------------|
D|--------5---------------5-------7---------------7-----7---------|
A|3---------------3-----------------------7---------------7-------|
E|----------------------------------------------------------------|

G|----------------------------------------------------------------|
D|3---------------5-----------------------5---------------5-------|
A|--------3---------------5-------3---------------3-------------2/|
E|----------------------------------------------------------------|

0:40

G|----------------------------------------------------7---8---9---|
D|--------4---4---5---5---6---6---7---7---9---9---10--------------|
A|7---7-----------------------------------------------------------|
E|----------------------------------------------------------------|

G|10--------------------------------------------------------12----|
D|--------10------7-------------------9---10----11----12--12------|
A|------------------------8-----8/10------------------------------|
E|----------------------------------------------------------------|

G|----------------------------------------------------------------|
D|10--------------10------9---8---7---------------7---------------|
A|--------10------------------------------7---------------7-------|
E|----------------------------------------------------------------|

G|----------------------------------------------------------------|
D|3---------------5-------------------2---3---3-4---4-5---3---2---|
A|--------3---------------5-------3-------------------------------|
E|----------------------------------------------------------------|

0:59

G|----------------------------------------------------------------|
D|--------5---------------5-------7---------------7---------------|
A|3---------------3-----------------------7---------------7-------|
E|----------------------------------------------------------------|

G|--------------------------------5-------------------------------|
D|3---------------5-------------------2---3---3-4---4-5---3---2---|
A|--------3---------------5---------------------------------------|
E|----------------------------------------------------------------|

G|----------------------------------------------------------------|
D|--------5---------------5-------7---------------7---------------|
A|3---------------3-----------------------7---------------7-------|
E|----------------------------------------------------------------|

G|--------------------------------5-------------------------------|
D|3---------------5-----------------------5-----3-----2-----------|
A|--------3---------------5-----------------------------------2-/-|
E|----------------------------------------------------------------|

1:17

G|----------------------------------------------------------------|
D|--------4---4-5---5-6-------6---7---7---------7---7-----7-------|
A|7---7-------------------7---------------7---7-------7-------7---|
E|----------------------------------------------------------------|

G|------------------------------10/12--10----9-----7---------------|
D|--------7-------10-------------------------------------9---------|
A|8-----------------------8------------------------------------10--|
E|-----------------------------------------------------------------|

G|----------------------------------------------------------------|
D|10--------------10------9---8---7---------------7---------------|
A|--------10------------------------------7---------------7-------|
E|----------------------------------------------------------------|

G|--------------------------------------------------------5-------|
D|3---------------5-------------------2---3---3-4-----5-------5---|
A|--------3---------------5-------3-------------------------------|
E|----------------------------------------------------------------|

1:37

G|----------------------------------------------------------------|
D|--------5---------------5---6---7---------------7---------------|
A|3---------------3-----------------------7---------------7-------|
E|----------------------------------------------------------------|

G|--------------------------------5-------------------------------|
D|3---------------5-------------------5---3---2-----2-3---4---5---|
A|--------3---------------5---------------------3-----------------|
E|----------------------------------------------------------------|

G|----------------------------------------------------------------|
D|--------5---------------5-------7---------------7---------------|
A|3---------------3-----------------------7---------------7-------|
E|----------------------------------------------------------------|

G|----------------------------------------------5-----------------|
D|3---------------5-----------------------5-----------5---2-------|
A|--------3---------------5-------3---------------------------3-/-|
E|----------------------------------------------------------------|

1:54

G|----------------------------------------------------------------|
D|--------4---5-6---6-----6-------7-------------7---7-----7-------|
A|7---7---------------7-------------------7-----------7-------7---|
E|----------------------------------------------------------------|

G|--------------------------------12----11----10----9-------------|
D|--------10--------------10------------------------------12--11--|
A|8---------------8-----------------------------------------------|
E|----------------------------------------------------------------|

G|----------------------------------------------------------------|
D|10--------------10------9---8---7---------------7---------------|
A|--------10------------------------------7---------------7-------|
E|----------------------------------------------------------------|

G|----------------------------------------------------------------|
D|3---------------5-----------------------5-----------2---3---5---|
A|--------3---------------5-------3---------------3---------------|
E|----------------------------------------------------------------|

2:11

G|----------------------------------------------------------------|
D|--------5---------------5-------7---------------7---------------|
A|3---------------3-----------------------7---------------7-------|
E|----------------------------------------------------------------|

G|--------------------------------5-------------------------------|
D|3---------------5-----------------5-----4-----3-----2-----5-----|
A|--------3---------------5---------------------------------------|
E|----------------------------------------------------------------|

G|----------------------------------------------------------------|
D|--------5---------------5-------7---------------7---------------|
A|3---------------3-----------------------7---------------7-------|
E|----------------------------------------------------------------|

G|----------------------------------------------5-----------------|
D|3---------------5-------------------2---3---5-------5---2-------|
A|--------3---------------5-------3---------------------------3-/-|
E|----------------------------------------------------------------|

2:31

G|--------------------------------------------------------7---7-/-|
D|--------4---4---5---5---6---6---7---7---9---9---10--10----------|
A|7---7-----------------------------------------------------------|
E|----------------------------------------------------------------|

G|10--10-------------------------------12--------12----------------|
D|--------10--10-8---8-7-------7---9-------12--------12------------|
A|-------------------------8-------------------10----------10------|
E|-----------------------------------------------------------------|

G|----------------------------------------------------------------|
D|10--------------10------9-------7---------------7-------7-------|
A|--------10------------------------------7-----------------------|
E|----------------------------------------------------------------|

G|----------------------------------------------------3---4---5---|
D|3---------------5-------------------2---3---4---5---------------|
A|--------3---------------5-------3-------------------------------|
E|----------------------------------------------------------------|

2:48

G|----------------------------------------------------------------|
D|--------5---------------5-------7---------------7---------------|
A|3---------------3-----------------------7---------------7-------|
E|----------------------------------------------------------------|

G|----------------------------------------------------------------|
D|3---------------5-----------------------2-------3-----4-----5---|
A|--------3---------------5-------3-------------------------------|
E|----------------------------------------------------------------|

G|----------------------------------------------------------------|
D|--------5---------------5-------7---------------7---------------|
A|3---------------3-----------------------7---------------7-------|
E|----------------------------------------------------------------|

G|----------------------------------5-4---2-----------------------|
D|3---------------5---------------------------5-3---3-2-----------|
A|--------3---------------5-------------------------------5---3-/-|
E|----------------------------------------------------------------|

3:08

G|----------------------------------------------------------------|
D|------------------------4---6---7---------------7---------------|
A|7---7-----------7---7-------------------7---------------7-------|
E|--------7---7---------------------------------------------------|

G|------------------------------------------------------------7---|
D|3---------------3---------------5-----6-----7-----8-----9-------|
A|--------3---------------3---------------------------------------|
E|----------------------------------------------------------------|

G|----------------------------------------------------------------|
D|10--------------10--------------7---------------7---------------|
A|--------10--------------10--------------7---------------7-------|
E|----------------------------------------------------------------|

G|----------------------------------------------------------------|
D|3---------------5-----------------------5-----------------------|
A|--------3---------------5-------3---------------3-------3-------|
E|----------------------------------------------------------------|

3:26

G|----------------------------------------------------------------|
D|----------------------------------------------------------------|
A|----------------------------------------------------------------|
E|----------------------------------------------------------------|

G|------------------------------5----------------------------------|
D|--------2-----3-----4-----5--------------------------------------|
A|3---3-3-----3-----0-----0----------------------------------------|
E|-----------------------------------------------------------------|

G|------------------------------------------------------5-|
D|--------4---4---5---5---------------2---3---4---5-------|
A|5---5-------------------5---5---3-----------------------|
E|--------------------------------------------------------|

************************************
| /  Slide up
| \  Slide down
************************************
Suggest correction
Creating personal tab
Creating personal tab
You can edit any tab online and save it as your Personal.

You can edit, replace or remove any tab part or add personal notes – all changes will be seen only by you.

Personal tabs can be accessed anytime from any device, even offline.
Learn more »
Give kudos to tab author, rate the tab!
1 2 3 4 5
comments
print report bad tab
guest
You may want to rate the tab now too:
select rating
Wanna post a correction for this tab? Suggest correction