Oops, an error
Loading. Please wait.

Penny Music Bass Tab

7 views 1 this week
no commentswrite comment
1 2 3 4 5
3 more votes to show rating
add to favorites
launch autoscroll
font size
0
reset
guitar tuner
Autoscroll
slow
fast
+/-
esc
set tempo
stop
Help us to improve Ultimate-Guitar.com Take our survey!
×
Author
Difficulty
novice
Tabbed by: 6METAL6BASSIST6
E-mail: petergriffinav@gmail.com

Tuning: EADG

G|--------------------------------------------------------------------|
D|--------------------------------------------------------------------|
A|--------------------------------------------------------------------|
E|--------------------------------------------------------------------|

G|----------------------------------------------------------------|
D|3-------3-----------------------3-------3-----------------------|
A|----------------3-------3-----------------------3-------3-------|
E|----------------------------------------------------------------|

G|----------------------------------------------------------------|
D|3-------3-----------------------2-------2-------------------3---|
A|--------------3---------------3---------------3-3---3---3-5---5-|
E|----------------3-------3---------------------------------------|

G|----------------------------------------------------------------|
D|3-------3-----------------------3-------3-----------------------|
A|----------------3-------3-----------------------3-------3-------|
E|----------------------------------------------------------------|

G|----------------------------------------------------------------|
D|3-------3-----------------------2-------------------------------|
A|--------------3---------------3---------5-------3-------1-------|
E|----------------3-------3---------------------------------------|

G|--------------------------3-5-3---------------------------------|
D|------------------------5-----------------------------------2---|
A|3-------------------------------3-------------------3---5-------|
E|----------------------------------------------------------------|

0:28

G|----------------2-------2-------3-------5-----------------------|
D|3-------3---------------------------------------3---3-------3---|
A|----------------------------------------------3---------3-5---5-|
E|----------------------------------------------------------------|

G|----------------------------------------------------------------|
D|3---3---3-------3-3---------3---3---3---3-------3-3---------3---|
A|------------3-5---------3-5---5-------------3-5---------3-5---5-|
E|----------------------------------------------------------------|

G|------------------------------------------------|
D|3-3-3-3-3-------3-3---------3---5-----5---------|
A|------------3-5---------3-5---5---------3-----3-|
E|------------------------------------------------|

G|--------2-----2-3-----3-5-----5---------------------------------|
D|3-----3-------------------------5-----5---------3---3-------3---|
A|----------------------------------------3-----3---------3-5---5-|
E|----------------------------------------------------------------|

G|----------------------------------------------------------------|
D|3---------------------------3---3---------------------------3---|
A|------------3-----------3-5---5-------------3-----------3-5---5-|
E|----------------------------------------------------------------|

0:49

G|----------------------------------------------------------------|
D|3-------3-----------------------3-------3-----------------------|
A|----------------3-------3-----------------------3-------3-------|
E|----------------------------------------------------------------|

G|----------------------------------------------------------------|
D|3-------3-----------------------2-------2-------------------3---|
A|--------------3---------------3---------------3-3---3---3-5---5-|
E|----------------3-------3---------------------------------------|

G|----------------------------------------------------------------|
D|3-------3-----------------------3-------3-----------------------|
A|----------------3-------3-----------------------3-------3-------|
E|----------------------------------------------------------------|

G|----------------------------------------------------------------|
D|3-------3-----------------------2-------------------------------|
A|--------------3---------------3---------5-------3-------1-------|
E|----------------3-------3---------------------------------------|

G|--------------------------3-5-3-5-------------------------------|
D|------------------------5-----------------------------------2---|
A|3---------------------------------------------------3---5-------|
E|----------------------------------------------------------------|

1:10

G|----------------2-------2-------3-------5-----------------------|
D|3-------3---------------------------------------3---3-------3---|
A|----------------------------------------------3---------3-5---5-|
E|----------------------------------------------------------------|

G|----------------------------------------------------------------|
D|3---3---3-------3---3-------3---3---3---3-------3---3-------3---|
A|--------------3---------3-5---5---------------3---------3-5---5-|
E|----------------------------------------------------------------|

G|----------------------------------------5-------|
D|3---3---3-------3---3-------3---5-----5---------|
A|--------------3---------3-5---5---------------3-|
E|------------------------------------------------|

G|--------2-----2-3-----3-5-----5---------5-----------------------|
D|3-----3-------------------------5-----5---------3---3-------3---|
A|----------------------------------------------3---------3-5---5-|
E|----------------------------------------------------------------|

G|----------------------------------------------------------------|
D|3---------------------------3---3---------------------------3---|
A|------------3-----------3-5---5-------------3-----------3-5---5-|
E|----------------------------------------------------------------|

1:32

G|----------------------------------------------------------------|
D|3-------3-----------------------3-------3-----------------------|
A|----------------3-------3-----------------------3-------3-------|
E|----------------------------------------------------------------|

G|----------------------------------------------------------------|
D|3-------3---------------------------------------2---------------|
A|----------------3-------3-----3---------------3---------3-------|
E|--------------------------------3-------3-----------------------|

G|----------------------------------------------------------------|
D|3-------3-----------------------3-------3-----------------------|
A|----------------3-------3-----------------------3-------3-------|
E|----------------------------------------------------------------|

G|----------------------------------------------------------------|
D|3-------3-----------------------2-------------------------------|
A|--------------3---------------3---------5-------3-------1-------|
E|----------------3-------3---------------------------------------|

G|--------------------------3-5-3---------------------------------|
D|------------------------5-----------------------------------2---|
A|3-------------------------------3-------------------3---5-------|
E|----------------------------------------------------------------|

1:54

G|----------------2-------2-------3-------5-----------------------|
D|3-------3---------------------------------------3---3-------3---|
A|----------------------------------------------3---------3-5---5-|
E|----------------------------------------------------------------|

G|----------------------------------------------------------------|
D|3---3---3-------3-3---------3---3---3---3-------3---3-3-----3---|
A|------------3-5---------3-5---5-------------3-5---------3-5---5-|
E|----------------------------------------------------------------|

G|----------------------------------------5-------|
D|3---3---3-------3-----3-----3---5-----5---------|
A|------------3-5---------3-5---5---------------3-|
E|------------------------------------------------|

G|--------2-----2-3-----3-5-----5---------5-----------------------|
D|3-----3-------------------------5-----5---------3---3-------3---|
A|----------------------------------------------3---------3-5---5-|
E|----------------------------------------------------------------|

2:10

G|--------2-------3-------2---------------5-----------------------|
D|3-------------------------------5---------------3---3-------3---|
A|--------------------------------------------------------3-5---5-|
E|----------------------------------------------------------------|

G|------------2---3-------2---------------5---5-------------------|
D|3---3---3-----------------------5-5-5-----------3---3-------3---|
A|--------------------------------------------------------3-5---5-|
E|----------------------------------------------------------------|

G|------------2---3-3-3-------------------5-5-5-------------------|
D|3---3---3---------------3---4---5---5-----------3---3-------3---|
A|--------------------------------------------------------3-5---5-|
E|----------------------------------------------------------------|

G|------------2---3-3-3---2---------------5-5-5-------------------|
D|3---3-3-3-------------------3---5-5-5-----------3---3-------3---|
A|--------------------------------------------------------3-5---5-|
E|----------------------------------------------------------------|

G|------------2---3---3-------------------5-5-5-------------------|
D|3---3---3---------------3---4---5---5-----------3---3-------3---|
A|--------------------------------------------------------3-5---5-|
E|----------------------------------------------------------------|

G|------------2---3-3-3---2---------------5-5-5-------|
D|3---3---3-------------------3---5-5-5-----------3---| fades out here.
A|----------------------------------------------------|
E|----------------------------------------------------|
Suggest correction
Give kudos to tab author, rate the tab!
1 2 3 4 5
comments
print report bad tab
guest
You may want to rate the tab now too:
select rating
Wanna post a correction for this tab? Suggest correction