Oops, an error
Loading. Please wait.

Pleasant Valley Sunday Chords

version 1
version 1

Whole song

Interactive

34,773 views 57 this week
2 commentsread comments
1 2 3 4 5
x 17
add to favorites
launch autoscroll
font size
0
reset
transpose
0
reset
simplify chords
display chords
guitar tuner
×
Best way to learn
"Pleasant Valley Sunday"
Autoscroll
slow
fast
+/-
esc
set tempo
stop
[Intro]
(two electric guitars (3x); acoustic guitar enters 2nd time)

   A             G/A  (bass tacet during intro)
  v   v   v   v     v   v   v   v
e|---|-----------------|------------------|
B|---|-----------------|------------------|
G|---|-----------------|------------------|
D|---|-7-----5-4-0---2-|-----0---5-4-0----|
A|-0-|-----0-------0---|---0--------------|
E|---|-----------------|------------------|

[Verse 1]
 A
The local rock group down the street
                              G/A 
Is trying hard to learn their song
 A
They serenade the weekend squire
                             G/A 
Who just came out to mow his lawn

[Chorus 1]
 C      FaddG            C      FaddG
Another Pleasant Valley Sunday (Sunday)
  C      FaddG          C        D
Charcoal burning everywhere
 E7      A               D   A   E7
Rows of houses that are all the same
    Bm F#m   D   A   E7
And no-one seems to care

[Verse 2]
See Mrs. Gray, she's proud today
Because her roses are in bloom
And Mr. Green, he's so serene
He's got a TV in every room

[Chorus 2]
Another Pleasant Valley Sunday (Sunday)
Here in status symbol land
Mothers complain about how hard life is
And the kids just don't understand

[Bridge]
 E7
Creature comfort goals
They only numb my soul
And make it hard for me to see
My thoughts all seem to stray
To places far away
                           (A)
I need a change of scenery

[Instrumental] (x2)
   A             G/A  (bass tacet during intro)
  v   v   v   v     v   v   v   v
e|---|-----------------|------------------|
B|---|-----------------|------------------|
G|---|-----------------|------------------|
D|---|-7-----5-4-0---2-|-----0---5-4-0----|
A|-0-|-----0-------0---|---0--------------|
E|---|-----------------|------------------|

[Chorus 3]
 C      FaddG            C      FaddG
Another Pleasant Valley Sunday (Sunday)
 C      FaddG          C
Charcoal burning everywhere
 F       Bb              F     Bb
Another Pleasant Valley Sunday
 F       Bb            F       (A)
Here in status symbol land

[Outro] (x2)
   A             G/A  (bass tacet during intro)
  v   v   v   v     v   v   v   v
e|---|-----------------|------------------|
B|---|-----------------|------------------|
G|---|-----------------|------------------|
D|---|-7-----5-4-0---2-|-----0---5-4-0----|
A|-0-|-----0-------0---|---0--------------|
E|---|-----------------|------------------|
Suggest correction
comments
print report bad tab
2 comments total.
0 reply
punkfan 10 Jul 02, 2009 06:46 PM

hey dude i was wondering if you could do some other 60's tabs, songs from jefferson airplane, some more monkees, and maybe the kinks as well?

guest
You may want to rate the tab now too:
select rating
Wanna post a correction for this tab? Suggest correction