Oops, an error
Loading. Please wait.

Po Box 9847 Bass Tab

19 views 1 this week
no commentswrite comment
1 2 3 4 5
3 more votes to show rating
add to favorites
launch autoscroll
font size
0
reset
guitar tuner
Autoscroll
slow
fast
+/-
esc
set tempo
stop
Help us to improve Ultimate-Guitar.com Take our survey!
×
Author
Difficulty
novice
Tabbed by: 6METAL6BASSIST6
E-mail: petergriffinav@gmail.com

Tuning: EADG

G|----------------------------------------------------------------|
D|5-------------------------------5-------------------------------|
A|----------------------------------------------------------------|
E|----------------------------------------------------------------|

0:10

G|------------------------------------------------------------12--|
D|-----------------------------------------------------10/12------|
A|10----------------------------5/10------------------------------|
E|----------------------------------------------------------------|

G|------------------------------------------------------------12--|
D|-----------------------------------------------------10/12------|
A|10------------------------------10------------------------------|
E|----------------------------------------------------------------|

G|----------------------------------------------------------------|
D|10----------------------------------------------------------10--|
A|------------------------------------------------------8/10------|
E|--------------------------------8-------------------------------|

G|------------------------------------------------------------12--|
D|-----------------------------------------------------10/12------|
A|10----------------------------5/10------------------------------|
E|----------------------------------------------------------------|

G|----------------------------------------------------------------|
D|--------10------10------10\-------------------------------------|
A|--------------------------------3-------3-------3-------3-------|
E|8---------------------------------------------------------------|

0:34

G|-------------------------------------------------------------12--|
D|--------------------------------------------------------10/12----|
A|10------10------10------10----5/10------10------10---------------|
E|-----------------------------------------------------------------|

G|------------------------------------------------------------12--|
D|-------------------------------------------------------/12------|
A|10------10------10------10------10------10------10--------------|
E|----------------------------------------------------------------|

0:43

G|----------------------------------------------------------------|
D|----------------------------------------------------------------| x2
A|6-------------------------------6-------------------------------|
E|----------------------------------------------------------------|

G|----------------------------------------------------------------|
D|--------5-------------------------------5-----------------------| x2
A|--------------5-5---5---7---5-----------------5-5---5---7---5---|
E|3-------------------------------3-------------------------------|

1:01

G|----------------------------------------------------------------|
D|--------5-------------------------------5-----------------------| x2
A|----------------5---5---7---5-------------------5---5---7---5---|
E|3-------------------------------3-------------------------------|

G|--------5-------------------------------5-----------------------|
D|----------------5---5---7---5-------------------5---5---7---5---|
A|3-------------------------------3-------------------------------|
E|----------------------------------------------------------------|

G|----------------------------------------------------------------|
D|--------5-------------------------------5-----------------------|
A|----------------5---5---7---5-------------------5---5---7---5---|
E|3-------------------------------3-------------------------------|

G|----------------------------------------------------------------|
D|----------------------------------------------------------------|
A|3-------3-------3-------3-------3-------3-------3-------3-------|
E|----------------------------------------------------------------|

1:25

G|-------------------------------------------------------------12--|
D|--------------------------------------------------------10/12----|
A|10------10------10------10----5/10------10------10---------------|
E|-----------------------------------------------------------------|

G|-------------------------------------------------------------12--|
D|--------------------------------------------------------10/12----|
A|10------10------10------10------10------10------10---------------|
E|-----------------------------------------------------------------|

1:33

G|---------------/12-----/12\-------------------------10------12--|
D|5-------5-----------------------5-------5-----5/12--------------|
A|----------------------------------------------------------------|
E|----------------------------------------------------------------|

G|---------------/12-----/12\-------------------------10------12--|
D|5-------5-----------------------5-------5-----5/12--------12----|
A|----------------------------------------------------------------|
E|----------------------------------------------------------------|

G|---------------/12-----/12\-------------------------10------12--|
D|5-------5-----------------------5-------5-----5/12--------------| x3
A|----------------------------------------------------------------|
E|----------------------------------------------------------------|

G|----------------------------------------------------------------|
D|5-------5-------5-------5-------5-------5-------5-------5-------|
A|----------------------------------------------------------------|
E|----------------------------------------------------------------|

2:01

G|----------------------------------------------------------------|
D|----------------------------------------------------------------| x2
A|6-------------------------------6-------------------------------|
E|----------------------------------------------------------------|

2:12

G|----------------------------------------------------------------|
D|--------5-------------------------------5-----------------------|
A|--------------5-5---5---7---5-------------------5---5---7---5---|
E|3-------------------------------3-------------------------------|

G|----------------------------------------------------------------|
D|--------5-------------------------------5-----------------------|
A|----------------5---5---7---5-------------------5---5---7---5---|
E|3-------------------------------3-------------------------------|

G|--------5-------------------------------5-----------------------|
D|--------------5-5---5---7---5-----------------5-5---5---7---5---|
A|3-------------------------------3-------------------------------|
E|----------------------------------------------------------------|

G|----------------------------------------------------------------|
D|--------5-------------------------------5-----------------------|
A|----------------5---5---7---5-------------------5---5---7---5---|
E|3-------------------------------3-------------------------------|

G|----------------------------------------------------------------|
D|----------------------------------------------------------------|
A|3-------3-------3-------3-------3-------3-------3-------3-------|
E|----------------------------------------------------------------|

2:35

G|-------------------------------------------------------------12--|
D|--------------------------------------------------------10/12----|
A|10------10------10------10----5/10------10------10---------------|
E|-----------------------------------------------------------------|

G|------------------------------------------------------------12--|
D|-------------------------------------------------------/12------|
A|10------10------10------10------10------10------10--------------|
E|----------------------------------------------------------------|

G|----------------------------------------------------------------|
D|----------------------------------------------------------------| x2
A|6-------------------------------6-------------------------------|
E|----------------------------------------------------------------|

2:54

G|----------------------------------------------------------------|
D|--------5-------------------5-----------5-----------------------|
A|--------------5-5---5---7---------------------5-5---5---7---5---|
E|3-------------------------------3-------------------------------|

G|----------------------------------------------------------------|
D|--------5-------------------------------5-----------------------|
A|----------------5---5---7---5-----------------5-5---5---7---5---|
E|3-------------------------------3-------------------------------|

G|----------------------------------------------------------------|
D|--------5-------------------------------5-----------------------| until fadeout.
A|--------------5-5---5---7---5-----------------5-5---5---7---5---|
E|3-------------------------------3-------------------------------|
Suggest correction
Give kudos to tab author, rate the tab!
1 2 3 4 5
comments
print report bad tab
guest
You may want to rate the tab now too:
select rating
Wanna post a correction for this tab? Suggest correction