Oops, an error
Loading. Please wait.

Porpoise Song Bass Tab

31 views 1 this week
no commentswrite comment
1 2 3 4 5
3 more votes to show rating
add to favorites
launch autoscroll
font size
0
reset
guitar tuner
Autoscroll
slow
fast
+/-
esc
set tempo
stop
Help us to improve Ultimate-Guitar.com Take our survey!
×
Author
Difficulty
novice
Tabbed by: 6METAL6BASSIST6
E-mail: petergriffinav@gmail.com

Tuning: EADG

Original long version.

G|------------------------------------------------------------------------|
D|------------------------------------------------------------------------|
A|7-----------------------------------5-----------------------------------|
E|------------------------------------------------------------------------|

G|------------------------------------------------------------------------|
D|------------------------------------------------------------------------|
A|4-----------------------------------2-----------------------------------|
E|------------------------------------------------------------------------|

G|------------------------------------------------------------------------|
D|------------------------------------------------------------------------|
A|------------------------------------------------------------------------|
E|5-----------------------------------2-----------------------------------|

G|------------------------------------------------------------------------|
D|------------------------------------------------------------------------|
A|2-----------------------------------------------------------------------|
E|------------------------------------------------------------------------|



0:34

G|------------------|
D|9-----------6-----|
A|------------------|
E|------------------|

G|------------------------------------------------------------------------------------------------|
D|------------------------------------------------------------------------------------------7-----|
A|------------7-----5-----3-----------3-----------5-----------5-----------------------------------|
E|0-----------------------------------------------------------------------5-----------------------|

G|------------------------------------------------------------------------------------------------|
D|------------------------------------------------------------------------------------------------|
A|7-----------7-----------7-----7-----------7-----7-----------7-----------7-----7-----------7-----|
E|----------------------------------------------------------------------7-----------------7-----7-|

0:52

G|------------------------------------------------------------------------------------------------|
D|------------------------------------------------------------------------------------------7-----|
A|7-----------7-----5-----3-----------3-----------5-----------5-----------------------------------|
E|------------------------------3-----------------------------------------5-----------------------|

G|------------------------------------------------|
D|------------------9-----------------------6-----|
A|------------------------------7-----------------|
E|------7-----------------------------------------|

1:02

G|------------------------------------------------------------------------------------------------|
D|7-----------7-----------5-----------5-----------4-----------4-----------------------------------|
A|------------------------------------------------------------------------7-----------7-----------|
E|------------------------------------------------------------------------------------------------|

G|------------------------------------------------------------------------------------------------|
D|7-----------------7-----5-----------------5-----4-----------------------------------------------|
A|------------------------------------------------------7-----------5-----------------------5-----|
E|------------------------------------------------------------------------------5-----------------|

1:17

G|------------------------------------------------------------------------------------------------|
D|------------------------------------------------------------------------------------------------|
A|7-----------7-----------5-----------5-----------4-----------4-----------5-----------------7-----|
E|------------------------------------------------------------------------------5-----------------|

G|------------------------|
D|------------------------|
A|------5-----------------|
E|------------------5-----|

1:26

G|------------------------------------------------------------------------------------------------|
D|------------------------------------------------------------------4-----------------------7-----|
A|------------------2-----------3-----------5-----5-----7-----------------------------------------|
E|3-----5-----------------------------------------------------------------------------------------|

G|9-----7-----------------------------------------|
D|------------------9-----7-----------------------|
A|------------------------------9-----7-----5-----|
E|------------------------------------------------|

1:37

G|------------------------------------------------------------------------------------------------|
D|------------------------------------------------------------------------7-----------------------|
A|------------7-----5-----3-----------3-----------5-----------------------------------------------|
E|0-----------------------------3-----------------------------------------------------------------|

G|------------------------------------------------------------------------------------------------|
D|------------------------------------------------------------------------------------------------|
A|7-----------7-----------7-----------------7-----7-----------------------7-----------------7-----|
E|----------------------------0-----------------7-------------0---------7-----0-----------7-------|

1:52

G|------------------------------------------------------------------------------------------------|
D|------------------------------------------------------------------5---5-7-----------------------|
A|7-----------7-----5-----3-----------3-----------5-----------------------------------------5-----|
E|------------------------------3---------------------------------------------------------7-------|

G|------------------------------------------------|
D|------------------------------------4-----6-----|
A|7-----------7-----------7-----7-----------------|
E|----------------------7-------------------------|

2:03

G|------------------------------------------------------------------------------------------------|
D|7-----------7-----------5-----------5-----------4-----------4-----------------------------------|
A|------------------------------------------------------------------------7-----------7-----------|
E|------------------------------------------------------------------------------------------------|

G|------------------------------------------------------------------------------------------------|
D|7-----------------------5-----------------5-----4-----------------------------------4-----------|
A|------------------------------------------------------7-----------5-----------------------5-----|
E|------------------------------------------------------------------------------5-----------------|

2:18

G|------------------------------------------------------------------------------------------------|
D|------------------------------------------------------------------------------------------------|
A|7-----------7-----------5-----------5-----------4-----------4-----------5-----------------7-----|
E|------------------------------------------------------------------------------5-----------------|

G|------------------------|
D|------------------------|
A|------5-----------------|
E|------------------5-----|

2:27

G|------------------------------------------------------------------------------------------------|
D|------------------------------------------------------------------4-----------5-----------7-----| x2
A|------------------2-----------3-----------5-----5-----7-----------------------------------------|
E|3-----5-----------------------------------------------------------------------------------------|

G|------------------------------------------------------------------------------------------------|
D|------------------------------------------------------------------------------------------------|
A|------------------2-----------3-----------5-----2-----------------------------------------------|
E|3-----5-----------------------------------------------------------------------------------------|



3:07 until fadeout.

G|------------------------------------------------------------------------------------------------|
D|------------------------------------------------------------------------------------------------|
A|5-----------------4-----------------2-----------------2-----------4-----------5-----------7-----|
E|------------------------------------------------5-----------------------------------------------|
Suggest correction
Give kudos to tab author, rate the tab!
1 2 3 4 5
comments
print report bad tab
guest
You may want to rate the tab now too:
select rating
Wanna post a correction for this tab? Suggest correction