Oops, an error
Loading. Please wait.

Propinquity Ive Just Begun To Care Bass Tab

19 views 3 this week
no commentswrite comment
1 2 3 4 5
3 more votes to show rating
add to favorites
launch autoscroll
font size
0
reset
guitar tuner
Autoscroll
slow
fast
+/-
esc
set tempo
stop
Help us to improve Ultimate-Guitar.com Take our survey!
×
Author
Difficulty
novice
Tabbed by: 6METAL6BASSIST6
E-mail: petergriffinav@gmail.com

Tuning: 1/4 step down.

G|------------------------------------------------------------------------------------------------|
D|------------------------------------------------------------------------------------------------|
A|------------------------------------------------------------------------------------------------|
E|------------------------------------------------------------------------------------------------|

G|------------------------|
D|------------------6-----|
A|------7-----9-----------|
E|------------------------|

0:09

G|------------------------------------------------------------------------------------------------|
D|7-----------------------7-----------7-----------9-----------------------9-----------9-----------|
A|------------7-----------------------------------------------9-----------------------------------|
E|------------------------------------------------------------------------------------------------|

G|------------------------------------------------------------------------------------------------|
D|------------9-----------------------------------------------------------7-----------------6-----|
A|7-----------------------7-----------7-----------5-----------5-----------------7-----9-----------|
E|------------------------------------------------------------------------------------------------|

0:23

G|------------------------------------------------------------------------------------------------|
D|7-----------------------7-----------7-----------9-----------------------9-----------9-----------|
A|------------7-----------------------------------------------9-----------------------------------|
E|------------------------------------------------------------------------------------------------|

G|------------------------------------------------------------------------------------------------|
D|------------9-----------------------------------------------------------7-----------------------|
A|7-----------------------7-----------7-----------5-----------5-----------------------7-----------|
E|------------------------------------------------------------------------------------------------|

G|------------------------|
D|7-----------------6-----|
A|------7-----9-----------|
E|------------------------|

0:39

G|------------------------------------------------------------------------------------------------|
D|7-----------------------7-----------7-----------9-----------------------9-----------9-----------|
A|------------7-----------------------------------------------9-----------------------------------|
E|------------------------------------------------------------------------------------------------|

G|------------------------------------------------------------------------------------------------|
D|------------9-----------------------------------------------------------7-----------------6-----|
A|7-----------------------7-----------7-----------5-----------5-----------------7-----9-----------|
E|------------------------------------------------------------------------------------------------|

0:52

G|------------------------------------------------------------------------------------------------|
D|7-----------------------7-----------7-----------9-----------------------9-----------9-----------|
A|------------7-----------------------------------------------9-----------------------------------|
E|------------------------------------------------------------------------------------------------|

G|------------------------------------------------------------------------------------------------|
D|------------9-----------------------------------------------------------7-----------------------|
A|7-----------------------7-----------7-----------5-----------5-----------------------7-----------|
E|------------------------------------------------------------------------------------------------|

G|------------------------|
D|7-----7-----6-----------|
A|------------------9-----|
E|------------------------|

1:07

G|------------------------------------------------------------------------------------------------|
D|------------------------------------------------7-----------------------7-----7-----6-----------|
A|7-----------7-----------5-----------5-----------------------7-----------------------------9-----|
E|------------------------------------------------------------------------------------------------|

G|------------------------------------------------------------------------------------------------|
D|------------------------------------------------7-----------------------7-----------7-----------|
A|7-----------7-----------5-----------5-----------------------7-----------------------------------|
E|------------------------------------------------------------------------------------------------|

1:22

G|------------------------------------------------------------------------------------------------|
D|9-----------------------9-----------9-----------7-----------------------7-----------------------|
A|------------9-----------------------------------------------7-----------------------------4-----|
E|------------------------------------------------------------------------------------7-----------|

G|------------------------------------------------------------------------------------------------|
D|------------------------------------------------------------9-----------------------------6-----|
A|5-----------5-----------4-----------4-----------------------------------7-----7-----9-----------|
E|------------------------------------------------0-----------------------------------------------|

1:35

G|------------------------------------------------------------------------------------------------|
D|7-----------------------7-----------7-----------9-----------------------9-----------9-----------|
A|------------7-----------------------------------------------9-----------------------------------|
E|------------------------------------------------------------------------------------------------|

G|------------------------------------------------------------------------------------------------|
D|------------9-----------------------------------------------------------7-----------------6-----|
A|7-----------------------7-----------7-----------5-----------5-----------------7-----9-----------|
E|------------------------------------------------------------------------------------------------|

1:49

G|------------------------------------------------------------------------------------------------|
D|7-----------------------7-----------7-----------9-----------------------9-----------9-----------|
A|------------7-----------------------------------------------9-----------------------------------|
E|------------------------------------------------------------------------------------------------|

G|------------------------------------------------------------------------------------------------|
D|------------9-----------------------------------------------------------7-----------------------|
A|7-----------------------7-----------7-----------5-----------5-----------------------7-----------|
E|------------------------------------------------------------------------------------------------|

G|------------------------|
D|7-----7-----6-----------|
A|------------------9-----|
E|------------------------|

2:05

G|------------------------------------------------------------------------------------------------|
D|------------------------------------------------7-----------------------7-----7-----6-----------|
A|7-----------7-----------5-----------5-----------------------7-----------------------------9-----|
E|------------------------------------------------------------------------------------------------|

G|------------------------------------------------------------------------------------------------|
D|------------------------------------------------7-----------------------7-----------7-----------|
A|7-----------7-----------5-----------5-----------------------7-----------------------------------|
E|------------------------------------------------------------------------------------------------|

2:19

G|------------------------------------------------------------------------------------------------|
D|9-----------------------9-----------9-----------7-----------------------7-----------------------|
A|------------9-----------------------------------------------7-----------------------------4-----|
E|------------------------------------------------------------------------------------7-----------|

G|------------------------------------------------------------------------------------------------|
D|------------------------------------------------------------9-----------------------------6-----|
A|5-----------5-----------4-----------4-----------------------------------7-----7-----9-----------|
E|------------------------------------------------0-----------------------------------------------|

2:33

G|------------------------------------------------------------------------------------------------|
D|7-----------------------7-----------7-----------9-----------------------9-----------9-----------|
A|------------7-----------------------------------------------9-----------------------------------|
E|------------------------------------------------------------------------------------------------|

G|------------------------------------------------------------------------------------------------|
D|------------9-----------------------------------------------------------7-----------------6-----|
A|7-----------------------7-----------7-----------5-----------5-----------------7-----9-----------|
E|------------------------------------------------------------------------------------------------|

2:47

G|------------------------------------------------------------------------------------------------|
D|7-----------------------7-----------7-----------9-----------------------9-----------9-----------|
A|------------7-----------------------------------------------9-----------------------------------|
E|------------------------------------------------------------------------------------------------|

G|------------------------------------------------------------------------------------------------|
D|------------9-----------------------------------------------------------7-----------------------|
A|7-----------------------7-----------7-----------5-----------5-----------------------7-----------|
E|------------------------------------------------------------------------------------------------|

G|------------------------|
D|7-----7-----6-----------|
A|------------------9-----|
E|------------------------|

3:03

G|------------------------------------------------------------------------------------------------|
D|------------9-----------------------------------------------7-----------------------------9-----|
A|7-----------------------7-----------7-----------5-----------------------5-----------9-----------|
E|------------------------------------------------------------------------------------------------|

G|------------------------------------------------------------------------------------------------|
D|7-----------------------7-----------------------7-----------------------7-----------7-----------|
A|------------7-----------------------7-----------------------7-----------------7-----------------|
E|------------------------------------------------------------------------------------------------|
Suggest correction
Give kudos to tab author, rate the tab!
1 2 3 4 5
comments
print report bad tab
guest
You may want to rate the tab now too:
select rating
Wanna post a correction for this tab? Suggest correction