Oops, an error
Loading. Please wait.

Saturdays Child Bass Tab

13 views 1 this week
no commentswrite comment
1 2 3 4 5
3 more votes to show rating
add to favorites
launch autoscroll
font size
0
reset
guitar tuner
Autoscroll
slow
fast
+/-
esc
set tempo
stop
Help us to improve Ultimate-Guitar.com Take our survey!
×
Author
Difficulty
novice
Tabbed by: 6METAL6BASSIST6
E-mail: petergriffinav@gmail.com

Tuning: EADG

0:28

G|------------------------9-----------------9-----8-----------------------8-----------------8-----|
D|------9-----6-----9-----------9-----6-----------------9-----6-----9-----------9-----6-----------|
A|------------------------------------------------------------------------------------------------|
E|------------------------------------------------------------------------------------------------|

G|6-----------------------6-----------------------------------------------------------------------|
D|------7-----------7-----------7-----------7-----9-----------------------------------------------|
A|------------7-----------------------7-----------------------------------------------------------|
E|------------------------------------------------------------------------------------------------|



1:02

G|9-----------------------9-----------------9-----8-----------------------8-----------------8-----|
D|------9-----6-----9-----------9-----6-----------------9-----6-----9-----------9-----6-----------|
A|------------------------------------------------------------------------------------------------|
E|------------------------------------------------------------------------------------------------|

G|6-----------------------6-----------------------------------------------------------------------|
D|------7-----------7-----------7-----------7-----9-----------------------------------------------|
A|------------7-----------------------7-----------------------------------------------------------|
E|------------------------------------------------------------------------------------------------|

1:15

G|------------------------------------------------------------------------------------------------|
D|------------------------------------------------------------------------------------------------|
A|------------------------------------------------------------------------------------------------|
E|5-----5-----7-----7-----5-----5-----7-----------5-----5-----7-----------5-----5-----7-----7-----|

G|------------------------------------------------------------------------------------------------|
D|----------------------------------------------------------------------------9---7---------------|
A|------------------------------------------------------------------------------------9-----7-----|
E|3-----3-----5-----5-----3-----3-----5-----5-----3-----3-----5-----5-----------------------------|

G|------------------------|
D|------------------------|
A|6-----------------------|
E|------7-----------------|

1:31

G|----------------------------------------------------------------------/-7-----------------------|
D|------------------------------------------------------------------------------------------------|
A|7-----------------------------------------------------------------------------------------------|
E|------------------------------------------------------------------------------------------------|

G|------------------------9-----------------9-----7-----------------------7-----------7-----7-----|
D|----------------------9-----------------9-----9-----------------------7-----------7-----7-------|
A|------------------------------------------------------------------------------------------------|
E|0-----------------------------------------------------------------------------------------------|

1:44

G|----------------9-------7-------9-------7-----------------------|
D|------------9-----------------------9-------9---9---7---5-------|
A|----------------------------------------------------------------|
E|0---------------------------------------------------------------|

G|----------------7-----------------------5---7---5---------------|
D|------------7---------------7-------7---------------7-----------|
A|----------------------------------------------------------------|
E|----------------------------------------------------------------|

G|----------------9---9---7-------9---7---------------------------|
D|------------9---------------9-----------9---7---5---------------|
A|----------------------------------------------------7-----------|
E|----------------------------------------------------------------|

G|--------------------7---7---5-------7---7-------7---------------|
D|----------------7---------------7-----------------------7-------|
A|----------------------------------------------------------------|
E|----------------------------------------------------------------|

G|------------------------------------|
D|------------------------------------|
A|------------------------------------|
E|------------------------------------|



2:12

G|9-----------------------9-----------------9-----8-----------------------8-----------------8-----|
D|------9-----6-----9-----------9-----6-----------------9-----6-----9-----------9-----6-----------|
A|------------------------------------------------------------------------------------------------|
E|------------------------------------------------------------------------------------------------|

G|6-----------------------6-----------------------------------------------------------------------|
D|------7-----------7-----------7-----------7-----9-----9-----9-----9-----9-----------9-----9-----|
A|------------7-----------------------7-----------------------------------------------------------|
E|------------------------------------------------------------------------------------------------|

G|9-----------------------9-----------------9-----8-----------------------8-----------------8-----|
D|------9-----6-----9-----------9-----6-----------------9-----6-----9-----------9-----6-----------|
A|------------------------------------------------------------------------------------------------|
E|------------------------------------------------------------------------------------------------|

G|6-----------------------6-----------------------------------------------------------------------9-----|
D|------7-----------7-----------7-----------7-----9-----9---9-9-----9-----------9-----9-----9-----------|fades
A|------------7-----------------------7-----------------------------------9-----------------------------|out
E|------------------------------------------------------------------------------------------------------|here.
Suggest correction
Give kudos to tab author, rate the tab!
1 2 3 4 5
comments
print report bad tab
guest
You may want to rate the tab now too:
select rating
Wanna post a correction for this tab? Suggest correction