Oops, an error
Loading. Please wait.

She Hangs Out Bass Tab

version 2
version 2

Whole song

13 views 1 this week
no commentswrite comment
1 2 3 4 5
3 more votes to show rating
add to favorites
launch autoscroll
font size
0
reset
guitar tuner
Autoscroll
slow
fast
+/-
esc
set tempo
stop
Help us to improve Ultimate-Guitar.com Take our survey!
×
Author
Difficulty
novice
Tabbed by: 6METAL6BASSIST6
E-mail: petergriffinav@gmail.com

Tuning: EADG

Single version.

G|----------------------------------------------------------------|
D|----------------------------------------------------------------| x2
A|1-------1-------------------0-h-1-------1-------------------0-h-|
E|----------------------------------------------------------------|

0:08

G|----------------------------------------------------------------|
D|----------------------------0-h-1-------1-----------------------|
A|1-------1---------------------------------------------------0-h-|
E|----------------------------------------------------------------|

G|----------------------------------------------------------------|
D|----------------------------------------------------------------|
A|1-------1-------------------0-h-1-------1-------------------0-h-|
E|----------------------------------------------------------------|

G|----------------------------------------------------------------|
D|----------------------------0-h-1-------1-----------------------|
A|1-------1---------------------------------------------------0-h-|
E|----------------------------------------------------------------|

G|----------------------------------------------------------------|
D|------------------------------------------------------------2-h-|
A|1-------1-------------------0-h-1-------1-----------------------|
E|----------------------------------------------------------------|

0:23

G|----------------------------------------------------------------|
D|3-------3-------------------0-h-1-------1-----------------------|
A|------------------------------------------------------------0-h-|
E|----------------------------------------------------------------|

G|----------------------------------------------------------------|
D|------------------------------------------------------------2-h-|
A|1-------1-------------------0-h-1-------1-----------------------|
E|----------------------------------------------------------------|

G|----------------------------------------------------------------|
D|3-------3-------------------0-h-1-------1-------1---------------|
A|------------------------------------------------------------0-h-|
E|----------------------------------------------------------------|

G|----------------------------------------------------------------|
D|----------------------------------------------------------------| x2
A|1-------1-------------------0-h-1-------1-------------------0-h-|
E|----------------------------------------------------------------|

0:42

G|----------------------------------------------------------------|
D|----------------------------0-h-1-------1-----------------------|
A|1-------1---------------------------------------------------0-h-|
E|----------------------------------------------------------------|

G|----------------------------------------------------------------|
D|----------------------------------------------------------------|
A|1-------1-------------------0-h-1-------1-------------------0-h-|
E|----------------------------------------------------------------|

G|----------------------------------------------------------------|
D|----------------------------0-h-1-------1-----------------------|
A|1-------1---------------------------------------------------0-h-|
E|----------------------------------------------------------------|

G|----------------------------------------------------------------|
D|------------------------------------------------------------2-h-|
A|1-------1-------------------0-h-1-------1-----------------------|
E|----------------------------------------------------------------|

0:57

G|----------------------------------------------------------------|
D|3-------3-------------------0-h-1-------1-----------------------|
A|------------------------------------------------------------0-h-|
E|----------------------------------------------------------------|

G|----------------------------------------------------------------|
D|------------------------------------------------------------2-h-|
A|1-------1-------------------0-h-1-------1-----------------------|
E|----------------------------------------------------------------|

G|----------------------------------------------------------------|
D|3-------3-------3-------2-------1-------1-------1---------------|
A|------------------------------------------------------------0-h-|
E|----------------------------------------------------------------|

G|----------------------------------------------------------------|
D|----------------------------------------------------------------|
A|1-------1-------------------0-h-1-------1-------------------0-h-|
E|----------------------------------------------------------------|

G|----------------------------------------------------------------|
D|------------------------------------------------------------0-h-|
A|1-------1-------------------0-h-1-------1-----------------------|
E|----------------------------------------------------------------|

1:16

G|----------------------------------------------------------------|
D|1---------------1---------------1---------------1---------------| x2
A|----3---1-----------3---1-----------3---1-----------3---1-------|
E|----------------------------------------------------------------|

G|----------------------------------------------------------------|
D|----------------------------------------------------------------| x2
A|1---------------1---------------1---------------1---------------|
E|----3---1-----------3---1-----------3---1-----------3---1-------|

1:30

G|----------------------------------------------------------------|
D|3---------------3---1-----------3---1-----------3---1-----------|
A|--------3---------------3---------------3---------------3-------|
E|----------------------------------------------------------------|

G|----------------------------------------------------------------|
D|1---------------1---------------1-------------------------------|
A|----4---1-----------3---1-----------------------------------0-h-|
E|----------------------------------------------------------------|

G|----------------------------------------------------------------|
D|----------------------------------------------------------------|
A|1-------1-------------------0-h-1-------1-------------------0-h-|
E|----------------------------------------------------------------|

G|----------------------------------------------------------------|
D|----------------------------2-h-3---3-------3-------3-----------|
A|1-------1---------------------------------------------------0-h-|
E|----------------------------------------------------------------|

1:45

G|----------------------------------------------------------------|
D|----------------------------0-h-1-------1-----------------------|
A|1-------1---------------------------------------------------0-h-|
E|----------------------------------------------------------------|

G|----------------------------------------------------------------|
D|----------------------------------------------------------------|
A|1-------1-------------------0-h-1-------1-------------------0-h-|
E|----------------------------------------------------------------|

G|----------------------------------------------------------------|
D|----------------------------0-h-1-------1-----------------------|
A|1-------1---------------------------------------------------0-h-|
E|----------------------------------------------------------------|

G|----------------------------------------------------------------|
D|------------------------------------------------------------2-h-|
A|1-------1-------------------0-h-1-------1-----------------------|
E|----------------------------------------------------------------|

2:00

G|----------------------------------------------------------------|
D|3-------3-------------------0-h-1-------1-----------------------|
A|------------------------------------------------------------0-h-|
E|----------------------------------------------------------------|

G|----------------------------------------------------------------|
D|------------------------------------------------------------2-h-|
A|1-------1-------------------0-h-1-------1-----------------------|
E|----------------------------------------------------------------|

G|----------------------------------------------------------------|
D|3-------3-----------------------1-------1-------1---------------|
A|----------------------------1-------------------------------0-h-|
E|----------------------------------------------------------------|

G|----------------------------------------------------------------|
D|----------------------------------------------------------------| x2
A|1-------1-------------------0-h-1-------1-------------------0-h-|
E|----------------------------------------------------------------|

2:19 until fadeout.

G|----------------------------------------------------------------|
D|----------------------------0-h-1-------1-----------------------|
A|1-------1---------------------------------------------------0-h-|
E|----------------------------------------------------------------|

G|----------------------------------------------------------------|
D|----------------------------------------------------------------|
A|1-------1-------------------0-h-1-------1-------------------0-h-|
E|----------------------------------------------------------------|

***********************************
| h   Hammer-on
***********************************
Suggest correction
Give kudos to tab author, rate the tab!
1 2 3 4 5
comments
print report bad tab
guest
You may want to rate the tab now too:
select rating
Wanna post a correction for this tab? Suggest correction