Oops, an error
Loading. Please wait.

She Makes Me Laugh bass

403 views 1 this week
no commentswrite comment
1 2 3 4 5
1 last vote to show rating
add to favorites
×
Save as Personal and add changes to this tab that will be seen only by you. Learn more ›
×
You can save this tab as Personal to edit and correct it or add notes. All changes will be seen only by you. Learn more »
launch autoscroll
font size
0
reset
guitar tuner
edit
Autoscroll
slow
fast
+/-
esc
set tempo
stop
Author
Difficulty
Tabbed by: 6METAL6BASSIST6
E-mail: petergriffinav@gmail.com

Tuning: EADG

G|----------------------------------------------------------------|
D|----------------7-----------7-----------------/-9-----/-9-------| x2
A|7-----------7-------------------7-----------7-------------------|
E|----------------------------------------------------------------|

0:07

G|----------------------------------------------------------------|
D|----------------7-----------7-------------------7-----------7---|
A|7-----------7-------------------7-----------7-------------------|
E|----------------------------------------------------------------|

G|----------------------------------------------------------------|
D|----------------7-----------7-------------------11----------11--|
A|7-----------7-------------------7-----------7-/-----------------|
E|----------------------------------------------------------------|

G|----------------------------------------------------------------|
D|--------------------------------9-----------9---9-----------9---|
A|9-----------9---9-----------9-----------------------------------|
E|----------------------------------------------------------------|

0:18

G|----------------------------------------------------------------|
D|----------------7-----------7-------------------7-----------7---|
A|7-----------7-------------------7-----------7-------------------|
E|----------------------------------------------------------------|

G|----------------------------------------------------------------|
D|----------------7-----------7-------------------11----------11--|
A|7-----------7-------------------7-----------7-/-----------------|
E|----------------------------------------------------------------|

G|----------------------------------------------------------------|
D|--------------------------------9-----------9---9-----------9---|
A|9-----------9---9-----------9---------------------------9-------|
E|----------------------------------------------------------------|

G|----------------------------------------------------------------|
D|--------------/-9-----/-9---------------------------------------|
A|7-----------7-------------------7-------------------------------|
E|----------------------------------------------------------------|

0:33

G|----------------------------------------------------------------|
D|2-------2-------2---------------2-------2-------2---------------|
A|--------------------4---2---4-----------------------4---2---4---|
E|----------------------------------------------------------------|

G|----------------------------------------------------------------|
D|--------------------------------6-------6-------6-------6-------|
A|----------------------------6-------------------------------6---|
E|4-------4-------4---4---4---------------------------------------|

G|----------------------------------------------------------------|
D|----------------------------------------------------------/-7---|
A|4-------4-------4---4---4-------2-------2-------2---2---2-------|
E|----------------------------------------------------------------|

G|----------------------------------------------------------------|
D|----------------------------------------------------------------|
A|--------------------------------12--12--12--12--12--12--12------|
E|5-------5-------5---5---5---5-/---------------------------------|

0:47

G|----------------------------------------------------------------|
D|2-------2-------2---------------2-------2-------2---------------|
A|--------------------4---2---4-----------------------4---2---4---|
E|----------------------------------------------------------------|

G|----------------------------------------------------------------|
D|--------------------------------6-------6-------6---6---6-------|
A|----------------------------6-------------------------------6---|
E|4-------4-------4---4---4---------------------------------------|

G|----------------------------------------------------------------|
D|----------------------------------------------------------/-7---|
A|4-------4-------4-------4-------2-------2-------2---2---2-------|
E|--------------------4-------------------------------------------|

G|----------------------------------------------------------------|
D|----------------------------------------------------------------|
A|--------------------------------12------------------------------|
E|5-------5-------5---5---5-/-------------------------------------|

1:02

G|----------------------------------------------------------------|
D|----------------7-----------7-------------------7-----------7---|
A|7-----------7-------------------7-----------7-------------------|
E|----------------------------------------------------------------|

G|----------------------------------------------------------------|
D|----------------7-----------7-------------------11----------11--|
A|7-----------7-------------------7-----------7-/-----------------|
E|----------------------------------------------------------------|

G|----------------------------------------------------------------|
D|--------------------------------9-----------9---9-----------9---|
A|9-----------9---9-----------9-----------------------------------|
E|----------------------------------------------------------------|

1:11

G|----------------------------------------------------------------|
D|----------------7-----------7-------------------7-----------7---|
A|7-----------7-------------------7-----------7-------------------|
E|----------------------------------------------------------------|

G|----------------------------------------------------------------|
D|----------------7-----------7-------------------11----------11--|
A|7-----------7-------------------7-----------7-/-----------------|
E|----------------------------------------------------------------|

G|----------------------------------------------------------------|
D|--------------------------------9-----------9---9-----------9---|
A|9-----------9---9-----------9---------------------------9-------|
E|----------------------------------------------------------------|

G|----------------------------------------------------------------|
D|--------------/-9-----/-9---------------------------------------|
A|7-----------7-------------------7-------------------------------|
E|----------------------------------------------------------------|

1:26

G|----------------------------------------------------------------|
D|2-------2-------2---------------2-------2-------2---------------|
A|--------------------4---2---4-----------------------4---2---4---|
E|----------------------------------------------------------------|

G|----------------------------------------------------------------|
D|--------------------------------6-------6-------6-------6-------|
A|--------------------------/-6-----------------------------------|
E|4-------4-------4---4---4-----------------------------------4---|

G|----------------------------------------------------------------|
D|----------------------------------------------------------/-7---|
A|4-------4-------4---4---4-------2-------2-------2---2---2-------|
E|----------------------------------------------------------------|

G|----------------------------------------------------------------|
D|----------------------------------------------------9-----------|
A|--------------------------------12--12--12--12--12------12------|
E|5-------5-------5---5---5-----/---------------------------------|

1:40

G|----------------------------------------------------------------|
D|2-------2-------2---------------2-------2-------2---------------|
A|--------------------4---2---4-----------------------4---2---4---|
E|----------------------------------------------------------------|

G|----------------------------------------------------------------|
D|--------------------------------6-------6-------6---6---6-------|
A|----------------------------6-----------------------------------|
E|4-------4-------4---4---4-----------------------------------4---|

G|----------------------------------------------------------------|
D|----------------------------------------------------------/-7---|
A|4-------4-------4---4---4-------2-------2-------2---2---2-------|
E|----------------------------4-----------------------------------|

G|----------------------------------------------------------------|
D|----------------------------------------------------------------|
A|--------------------------------12--12--12--12--12--12--12------|
E|5-------5-------5---5---5-----/---------------------------------|

1:55

G|----------------------------------------------------------------|.
D|----------------------------------------------------------------|.
A|4---------------------------------------------------------------|.
E|--------------------------------2-------------------------------|.
                                                                   . x2
G|----------------------------------------------------------------|.
D|----------------------------------------------------------------|.
A|2---------------------------/---7---------------7-------6-------|.
E|----------------------------------------------------------------|.

G|----------------------------------------------------------------|
D|----------------------------------------------------------------|
A|4---------------------------------------------------------------|
E|--------------------------------2-------------------------------|

G|----------------------------------------------------------------|
D|--------------------------------9---9---9---9---9---9---9---9---|
A|2---2---2---2---2---2---2---2-/---------------------------------|
E|----------------------------------------------------------------|

G|--------------------------------|
D|9-------------------------------|
A|--------------------------------|
E|--------------------------------|

2:18

G|----------------------------------------------------------------|
D|2-------2-------2---------------2-------2-------2---------------|
A|--------------------4---2---4-----------------------4---2---4---|
E|----------------------------------------------------------------|

G|----------------------------------------------------------------|
D|--------------------------------6-------6-------6-------6-------|
A|----------------------------6-----------------------6-------6---|
E|4-------4-------4---4---4---------------------------------------|

G|----------------------------------------------------------------|
D|----------------------------------------------------------/-7---|
A|4-------4-------4-------4-------2-------2-------2-------2-------|
E|--------------------4-------------------------------------------|

G|----------------------------------------------------------------|
D|----------------------------------------------------9-----------|
A|--------------------------------12--12--12--12--12------12------|
E|5-------5-------5---5---5-----/---------------------------------|

2:31

G|----------------------------------------------------------------|
D|2-------2-------2---------------2-------2-------2---------------|
A|--------------------4---2---4-----------------------4---2---4---|
E|----------------------------------------------------------------|

G|----------------------------------------------------------------|
D|--------------------------------6-------6-------6---6---6-------|
A|----------------------------6-----------------------------------|
E|4-------4-------4---4---4-----------------------------------4---|

G|----------------------------------------------------------------|
D|----------------------------------------------------------------|
A|4-------4-------4-------4-------2-------2-------2---2---2---2-/-|
E|--------------------4-------------------------------------------|

G|----------------------------------------------------------------|
D|7-------7---7---7---7---7---7-----------------------------------|
A|----------------------------------------------------------------|
E|--------------------------------5-------------------------------|

G|----------------------------------------------------------------|
D|----------------7-----------7-----------------/-9-----/-9-------|
A|7-----------7-------------------7-----------7-------------------|
E|----------------------------------------------------------------|

G|----------------------------------------------------------------|
D|--------------/-9-----------------------------------------------|
A|7-----------7-----------9-\-------------------------------------|
E|--------------------------------0-------------------------------|

************************************
| /  Slide up
| \  Slide down
************************************

            
            
Suggest correction
Creating personal tab
Creating personal tab
You can edit any tab online and save it as your Personal.

You can edit, replace or remove any tab part or add personal notes – all changes will be seen only by you.

Personal tabs can be accessed anytime from any device, even offline.
Learn more »
Give kudos to tab author, rate the tab!
1 2 3 4 5
comments
print report bad tab
guest
You may want to rate the tab now too:
select rating
Wanna post a correction for this tab? Suggest correction