Oops, an error
Loading. Please wait.

She Bass Tab

version 3
version 3

Whole song

  • ver 3 new
    This is a fun little alternate version of this son... Show more

Interactive

1 view 1 this week
no commentswrite comment
1 2 3 4 5
3 more votes to show rating
add to favorites
launch autoscroll
font size
0
reset
guitar tuner
Autoscroll
slow
fast
+/-
esc
set tempo
stop
Help us to improve Ultimate-Guitar.com Take our survey!
×
Author
Difficulty
novice
About this tab version
This is a fun little alternate version of this song that I like to play in the key of E. Was this info helpful? Yes No
[Intro]
G|----------------------------------------------------------------------------------|
D|----------------------------------------------------------------------------------|
A|--7---7-7----7-7----7h9p7---------5----5-5----5-5---5-5-4----2-4-5-5---------5----|
E|----------------------------9p7-----------------------------------------5--7------|

 verse 1       2x
G|---------------------------------------------------------------------------------------|
D|---------------------------------------------------------------------------------------|
A|--7---7-7----7-7----7h9p7---------5----5-5----5-5-------5-5-4----2-4-5-5----------5----|
E|----------------------------9p7----------------------------------------------5--7------|

 [Chorus]
G|-------------------------------------------------------------------------------------------------------|
D|-----------------------7(x4)---------------------------------------------------------------------------|
A|---7(x16)--------------------------------7-7-7-5-7-7------------------7-7-7-5-7-7-----------------5----|
E|-------------5(x8)-----------5(x4)-----------------------5-5-5-3-5--------------------5-5-5-3-5-7------|

 verse 2       2x
G|---------------------------------------------------------------------------------------|
D|---------------------------------------------------------------------------------------|
A|--7---7-7----7-7----7h9p7---------5----5-5----5-5-------5-5-4----2-4-5-5----------5----|
E|----------------------------9p7----------------------------------------------5--7------|

 [Chorus]
G|-------------------------------------------------------------------------------------------------------|
D|-----------------------7(x4)---------------------------------------------------------------------------|
A|---7(x16)--------------------------------7-7-7-5-7-7------------------7-7-7-5-7-7-----------------5----|
E|-------------5(x8)-----------5(x4)-----------------------5-5-5-3-5--------------------5-5-5-3-5-7------|

 [Bridge]
G|----------------------------------------------------------------------------------------------------|
D|----------------------------------------------------------------------------------------------------|
A|--------------------------5----5-5----5----5-5-3----------------------------5----5-5----5----5-5----|
E|--3----3-3----3----3-3------------------------------3----3-3----3----3-3----------------------------|

G|-------------7(strum down whole note x4)--7(strum down half note x8)--7(strum down/up quarter note x16)-|
D|-------------7----------------------------7---------------------------7---------------------------------|
A|-5----5-5----5----------------------------5---------------------------5---------------------------------|
E|--------------------------------------------------------------------------------------------------------|

 interlude x2 - slight timing change from verse
G|-----------------------------------------------------------------------|
D|-----------------------------------------------------------------------|
A|--7----7-7----7-7----7h9p7-------5----5-5—--5-5-4----2-4-5-5------5----|
E|----------------------------9p7-------------------------------5-7------|


 [Chorus]
G|------------------------------------------------------------------------------------------------------|
D|-----------------------7(x4)--------------------------------------------------------------------------|
A|---7(x16)--------------------------------7-7-7-5-7-7------------------7-7-7-5-7-7-----------------5---|
E|-------------5(x8)-----------5(x4)-----------------------5-5-5-3-5--------------------5-5-5-3-5-7-----|

 [Outro]
G|------------------------------|repeat to fade
D|------------------------------|
A|-7(x8)----5(x8)---5-5-5-------|
E|------------------------------|



************************************

| h  Hammer-on
| p  Pull-off

************************************
Suggest correction
Give kudos to tab author, rate the tab!
1 2 3 4 5
comments
print report bad tab
guest
You may want to rate the tab now too:
select rating
Wanna post a correction for this tab? Suggest correction