Oops, an error
Loading. Please wait.

Some Of Shelleys Blues bass

73 views 1 this week
no commentswrite comment
1 2 3 4 5
3 more votes to show rating
add to favorites
×
Save as Personal and add changes to this tab that will be seen only by you. Learn more ›
×
You can save this tab as Personal to edit and correct it or add notes. All changes will be seen only by you. Learn more »
launch autoscroll
font size
0
reset
guitar tuner
edit
Autoscroll
slow
fast
+/-
esc
set tempo
stop
Author
Difficulty
Tabbed by: 6METAL6BASSIST6
E-mail: petergriffinav@gmail.com

Tuning: EADG

G|------------------------------------------------|
D|6-----------------------6-----------------5-----|
A|------------6-----------------6-----8-----------|
E|------------------------------------------------|

G|------------------------------------------------------------------------------------------------|
D|6-----------------------6---------6-------------------------------------------------------5-----|
A|------------6-----------------------6-----------------------8-----------6---------6-8-----------|
E|------------------------------------------8-----6-----------------------------------------------|

G|------------------------------------------------------------------------------------------------|
D|6-----------5-----------------------------------------------------------------------------5-----|
A|------------------------8-----------------------------------8-----------6-----------8-----------|
E|------------------------------------8-----------6-----------------------------------------------|

G|------------------------------------------------------------------------------------------------|
D|6-----------5-----------------------------------------------------------------------------5-----|
A|------------------------8-----------------------------------8-----------6---------6-8-----------|
E|------------------------------------8-----------6-----------------------------------------------|

G|------------------------------------------------------------------------------------------------|
D|6-----------------------6---------6-------6-----------------------------------------------5-----|
A|------------6-----------------------6-----------4-----------------4-----6---------6-8-----------|
E|------------------------------------------------------------4-----------------------------------|

0:30

G|------------------------------------------------------------------------------------------------|
D|6-----------------------6---------6-------------------------------------------------------5-----|
A|------------6-----------------------6-----------------------8-----------6---------6-8-----------|
E|------------------------------------------8-----6-----------------------------------------------|

G|------------------------------------------------------------------------------------------------|
D|6-----------5-----------------------------------------------------------------------------5-----|
A|------------------------8-----------------------------------8-----------6---------6-8-----------|
E|------------------------------------8-----7-----6-----------------------------------------------|

G|------------------------------------------------------------------------------------------------|
D|6-----------5-----------------------------------------------------------------------------5-----|
A|------------------------8-----------------------------------8-----------6-----------8-----------|
E|------------------------------------8-----------6-----------------------------------------------|

G|------------------------------------------------------------------------------------------------|
D|6-----------------------6---------6-------6-----------------------------6---------6-------------|
A|------------6-----------------------6-----------4-----------4-----------------------8-----6-----|
E|------------------------------------------------------------------------------------------------|

0:55

G|------------------------------------------------------------------------------------------------|
D|------------------------------------------------------------------------6-----------------------|
A|4-----------------------------------8-----------6-----------------6-----------------6-----3-----|
E|------------4-----5-----6-----------------------------------6-----------------------------------|

G|------------------------------------------------------------------------------------------------|
D|------------------------------------------------------------------------------------------------|
A|4-----------------------------------8-----------6-----------------------6-----------------------|
E|------------4-----5-----6-----------------------------------6-----------------------6-----------|

G|------------------------|
D|------------------5-----|
A|6---------6-8-----------|
E|------------------------|

1:10

G|------------------------------------------------------------------------------------------------|
D|6-----------------------6---------6-------------------------------------------------------5-----|
A|------------6-----------------------6-----------------------8-----------6---------6-8-----------|
E|------------------------------------------8-----6-----------------------------------------------|

G|------------------------------------------------------------------------------------------------|
D|6-----------5-----------------------------------------------------------------------------5-----|
A|------------------------8-----------------------------------8-----------6---------6-8-----------|
E|------------------------------------8-----------6-----------------------------------------------|

G|------------------------------------------------------------------------------------------------|
D|6-----------5-----------------------------------------------------------------------------5-----|
A|------------------------8-----------------------------------8-----------6-----------8-----------|
E|------------------------------------8-----------6-----------------------------------------------|

G|------------------------------------------------------------------------------------------------|
D|6-----------------------6---------6-------6-----------------------------6---------6-------------|
A|------------6-----------------------6-----------4-----------4-----------------------8-----6-----|
E|------------------------------------------------------------------------------------------------|

1:35

G|------------------------------------------------------------------------------------------------|
D|------------------------------------------------------------------------6---------6-------6-----|
A|4-----------------------------------8-----------6-----------------6-----------------6-----------|
E|------------4-----5-----6-----------------------------------6-----------------------------------|

G|------------------------------------------------------------------------------------------------|
D|------------------------------------------------------------------------------------------------|
A|4-----------------------------------8-----------6-----------------------6---------6-------------|
E|------------4-----5-----6---------6-------6-----------------6-----------------------6-----------|

G|------------------------|
D|------------------5-----|
A|6-----6-----8-----------|
E|------------------------|

1:50

G|------------------------------------------------------------------------------------------------|
D|6---------------------------------6-------------------------------------------------------5-----|
A|------------6-----------------------6-----------------------8-----------6---------6-8-----------|
E|------------------------4-----------------8-----6-----------------------------------------------|

G|------------------------------------------------------------------------------------------------|
D|6-----------5-----------------------------------------------------------------------------5-----|
A|------------------------8-----------------------------------8-----------6---------6-8-----------|
E|------------------------------------9-----8-----6-----------------------------------------------|

G|------------------------------------------------------------------------------------------------|
D|6-----------5-----------------------------------------------------------------------------------|
A|------------------------8-----------8-----6-----4-----------------4-----6---------6-------6-----|
E|------------------------------------------------------------4-----------------------6-----------|

G|------------------------------------------------------------------------------------------------|
D|6-----------------------6---------6-------6-----------------------------------------------5-----|
A|------------6-----------------------6-----------4-----------------4-----6-----------8-----------|
E|------------------------------------------------------------4-----------------------------------|

G|------------------------------------------------------------------------------------------------|
D|6-----------------------6-----------------6-----------------------------------------------------|
A|------------6-----------------------6-----------4-----------------4-----6-----------------------|
E|------------------------------------------------------------4-----------------------6-----------|

G|------------------------------------------------|
D|------------------------------------------------|
A|------------6-----------------6-----------------|
E|4-----------------------4-----------4-----------|

            
            
Suggest correction
Creating personal tab
Creating personal tab
You can edit any tab online and save it as your Personal.

You can edit, replace or remove any tab part or add personal notes – all changes will be seen only by you.

Personal tabs can be accessed anytime from any device, even offline.
Learn more »
Give kudos to tab author, rate the tab!
1 2 3 4 5
comments
print report bad tab
guest
You may want to rate the tab now too:
select rating
Wanna post a correction for this tab? Suggest correction