Oops, an error
Loading. Please wait.

String For My Kite Bass Tab

version 2
version 2

Whole song

10 views 1 this week
no commentswrite comment
1 2 3 4 5
3 more votes to show rating
add to favorites
launch autoscroll
font size
0
reset
guitar tuner
Autoscroll
slow
fast
+/-
esc
set tempo
stop
Help us to improve Ultimate-Guitar.com Take our survey!
×
Author
Difficulty
novice
Tabbed by: 6METAL6BASSIST6
E-mail: petergriffinav@gmail.com

Tuning: EADG

Original version.

G|------------------------------------------------5-------------------5---------------------------|
D|8-------------------8---6-------------------6---------------------------8-------------------8---|
A|------------------------------------------------------------------------------------------------|
E|------------------------------------------------------------------------------------------------|

G|------------------------|
D|8-------------------8---|
A|------------------------|
E|------------------------|

0:12

G|------------------------------------------------5-------------------5---------------------------|
D|8-------------------8---6-------------------6---------------------------8-------------------8---|
A|------------------------------------------------------------------------------------------------|
E|------------------------------------------------------------------------------------------------|

G|------------------------|
D|8-------------------8---|
A|------------------------|
E|------------------------|

0:23

G|------------------------5-------------------5---------------------------------------------------|
D|6-------------------6---------------------------8-------------------8---8-------------------8---| x2
A|------------------------------------------------------------------------------------------------|
E|------------------------------------------------------------------------------------------------|

0:40

G|------------------------------------------------------------------------------------------------|
D|------------------------------------------------------------------------------------------------|
A|6---6---6---6---6---6---6---6---6---6---6---6---6---6---6---6---6---6---6---6---6---6-----------|
E|------------------------------------------------------------------------------------------------|

G|------------------------------------------------------------------------------------------------|
D|------------------------------------------------------------------------------------------------|
A|------------------------------------------------------------------------------------------------|
E|4-------------------4---4-------------------4---4-------------------4---4-------------------4---|

G|----------------------------------------------------------------------------------------------------|
D|----------------------------------------------------------------------------------------------------| fades
A|----------------------------------------------------------------------------------------------------| out
E|4-------------------4---4-------------------4---4-------------------4---4---------------4-------4---| here.
Suggest correction
Give kudos to tab author, rate the tab!
1 2 3 4 5
comments
print report bad tab
guest
You may want to rate the tab now too:
select rating
Wanna post a correction for this tab? Suggest correction