Oops, an error
Loading. Please wait.

Tapioca Tundra bass

85 views 1 this week
no commentswrite comment
1 2 3 4 5
3 more votes to show rating
add to favorites
×
Save as Personal and add changes to this tab that will be seen only by you. Learn more ›
×
You can save this tab as Personal to edit and correct it or add notes. All changes will be seen only by you. Learn more »
launch autoscroll
font size
0
reset
guitar tuner
edit
Autoscroll
slow
fast
+/-
esc
set tempo
stop
Author
Difficulty
Tabbed by: 6METAL6BASSIST6 
E-mail: petergriffinav@gmail.com

Tuning: EADG

0:11

G|------------4-----------------------------------------------------------------------------------|
D|----------------5-----6-------------------2-----------------------2-----2-----------------------|
A|2---------2-------------7-----------2---4-----4-2---------2-----4-----4-----------------2---4-3-|
E|----------------------------------4-----------------------------------------------0-4-----------|

G|------------------------------------------------------------------------------------------------|
D|------------------------3---------3-----2-----1-0---------0-0-----0---/-7-----------------------|
A|2---------2-2---------2-------------------------------------------------------------------------|
E|------------------------------------------------------------------------------------------------|

G|----------------------------------------------------------------|
D|--------------------------------------------------------------/-|
A|----------------------------------------------------------------|
E|----------------------------------------------------------------|

G|----------------------------------------------------------------|
D|7-------7-----------5---6---7-----------5---7-----------5---6---|
A|----------------7-------------------7---------------7-----------|
E|----------------------------------------------------------------|

0:35

G|----------------------------------------------------------------|
D|7-----------7---7-------------------------------------------3---|
A|----------------------------7-\-4-----------4---4---------------|
E|----------------------------------------------------------------|

G|----------------------------------------------------------------|
D|4-----------4---4-----------4-/-7-----------7---7-----------7---|
A|----------------------------------------------------------------|
E|----------------------------------------------------------------|

G|----------------------------------------------------------------|
D|--------------------0---1---2-----------0---2-------0-----------| x2
A|2-------2-------2-------------------2-----------------------4---|
E|----------------------------------------------------------------|

G|----------------------------------------------------------------|
D|--------------------0---1---3-----------3-------3---2-------1---|
A|3-------2-------2-----------------------------------------------|
E|----------------------------------------------------------------|

G|----------------------------------------------------------------|
D|0-------0-------0---5-------6---7-------7-----------5---6---7---|
A|------------------------------------------------7---------------|
E|----------------------------------------------------------------|

G|--------------------------------|
D|--------5---7-----------5-------|
A|----7---------------7-------7---|
E|--------------------------------|

0:56

G|----------------------------------------------------------------|
D|------------------------4---7-----------7-----------------------|
A|----------------4---7---------------------------4-------4-------|
E|5-------5-------------------------------------------------------|

G|----------------------------------------------------------------|
D|4-----------4---4-----------4-/-7-----------7-------7-----------|
A|------------------------------------------------------------7-\-|
E|----------------------------------------------------------------|

G|----------------------------------------------------------------|
D|--------------------------------2-------0---2-------0-----------|
A|2-----------2---2-----------2-------2-----------------------4---|
E|----------------------------------------------------------------|

G|----------------------------------------------------------------|
D|--------------------0---1---2-----------0---2-------0-----------|
A|2-------2-------2-------------------2-----------------------4---|
E|----------------------------------------------------------------|

G|----------------------------------------------------------------|
D|--------------------0---2---3-------3---3-------3---2-------1---|
A|2-------2-------2-----------------------------------------------|
E|----------------------------------------------------------------|

G|----------------------------------------------------------------|
D|0-------0-------0---5-------6---7-------7-----------5---6---7---|
A|------------------------------------------------7---------------|
E|----------------------------------------------------------------|

G|--------------------------------|
D|--------5---7-------5-----------|
A|----7-----------------------7---|
E|--------------------------------|

1:14

G|----------------------------------------------------------------|
D|----------------------------------------------------------------|
A|4-------4-------4---4-----------4-----------4-----------4---5---|
E|------------4---------------4-------4---6-----------4-----------|

G|----------------------------------------------------------------|
D|4-------4-------4---4-----------4-------2---4-----------2---4---|
A|------------4---------------4-------4---------------4-----------|
E|----------------------------------------------------------------|

G|----------------4---4-----------4-------2---4-------4---2-------|
D|------------4---------------4-------4-----------------------4---|
A|2-------2-------------------------------------------------------|
E|----------------------------------------------------------------|

G|----------------------------------------------------------------|
D|2-------2-------2---0-------------------------------------------|
A|------------------------4---2---------------2-------4-------7---|
E|--------------------------------0---4---------------------------|

1:26

G|----------------------------------------------------------------|
D|5h7-----7-----------5---6---7-------------------------------3---|
A|----------------7-----------------------4-------4---4-----------|
E|----------------------------------------------------------------|

G|----------------------------------------------------------------|
D|4-----------4---4---4-------4-/-7-----------7---7---7-----------|
A|------------------------------------------------------------7-\-|
E|----------------------------------------------------------------|

G|----------------------------------------------------------------|
D|--------------------0---1---2-------2---------------0---2-------|
A|2-------2-------2---------------------------2---------------0---|
E|----------------------------------------------------------------|

G|----------------------------------------------------------------|
D|--------------------0---1---2-----------2-----------0---2-------|
A|2-------2-------2-------------------------------2-----------4---|
E|----------------------------------------------------------------|

G|----------------------------------------------------------------|
D|--------------------0---2---3-----------3-------3---2-------1---|
A|2-------2-------2-----------------------------------------------|
E|----------------------------------------------------------------|

G|----------------------------------------------------------------|
D|0-------0-------0---5---6---7-----------7-----------5---6---7---|
A|------------------------------------------------7---------------|
E|----------------------------------------------------------------|

G|--------------------------------|
D|--------5---7-------7---5-------|
A|----7-----------------------7---|
E|--------------------------------|

1:44

G|----------------------------------------------------------------|
D|----------------------------------------------------------------|
A|4-------4-------4---4-----------4-------4---4-----------4---6---|
E|------------4---------------4-------4---------------4-----------|

G|----------------------------------------------------------------|
D|4---4-----------4---4-----------4---4-------------------4-------|
A|------------4---------------4---------------4-------6-------6-\-|
E|----------------------------------------------------------------|

G|----------------------------------------------------------------|
D|----------------------------------------------------------------|
A|2---2-----------2---2-----------2---2-----------2---2-------2-/-|
E|------------2---------------2---------------2-------------------|

G|----------------------------9---9---9---9---9---9---9---9-------|
D|------------------------------------------------------------9---|
A|7---7---7---7---7---7---7---------------------------------------|
E|----------------------------------------------------------------|

1:55

G|----------------------------------------------------------------|
D|7-------7-----------4---7---7-----------4---7-------7-------4---|
A|----------------7-------------------7-------------------7-------|
E|----------------------------------------------------------------|

G|----------------------------------------------------------------|
D|4-------4-----------4-------4---7-------7-------7---5-----------|
A|----------------4-------------------------------------------9---|
E|----------------------------------------------------------------|

G|----------------------------------------------------------------|
D|--------------------0---1---2-----------0---2-------0-----------|
A|2-------2-------2-------------------2-----------------------4---|
E|----------------------------------------------------------------|

G|----------------------------------------------------------------|
D|--------------------0---1---2-------------------------------2---|
A|2-------2-------2-----------------------------------2---4-------|
E|------------------------------------0-------4-------------------|

G|----------------------------------------------------------------|
D|----------------------------2---3-----------3---3---3-------3---|
A|2-------2-------2---2-------------------------------------------|
E|----------------------------------------------------------------|

G|----------------------------------------------------------------|
D|0-------0-------0---0-------5-/-7-------7-----------5---6---7---|
A|------------------------------------------------7---------------|
E|----------------------------------------------------------------|

G|--------------------------------|
D|--------5---7-------7---7-------|
A|----7-----------------------7---|
E|--------------------------------|

2:13

G|----------------------------------------------------------------|
D|----------------------------------------------------------------|
A|4---------------4---4-----------4---4-------------------4-------|
E|------------4---------------4---------------4-------4-------4---|

G|----------------------------------------------------------------|
D|4---4-----------4---4-----------4---4-----------4---4-----------|
A|------------4---------------4---------------4-----------4-------|
E|----------------------------------------------------------------|

G|----------------------------------------------------------------|
D|----------------------------------------------------------------|
A|2---2-----------2---2-----------2---2-----------2---2-------2---|
E|------------2---------------2---------------2-------------------|

G|----------------------------------------------------------------|
D|2---2-------2---2---2-------2---2---2-------2-------2-------2-/-|
A|----------------------------------------------------------------|
E|----------------------------------------------------------------|

2:26

G|----------------------------------------------------------------|
D|7-------7-------7---7-------------------------------------------|
A|----------------------------7---4-----------4---4---4-------4---|
E|----------------------------------------------------------------|

G|----------------------------------------------------------------|
D|4-----------4---4---4-------4-/-7-----------7---7---7-------2---|
A|----------------------------------------------------------------|
E|----------------------------------------------------------------|

G|----------------------------------------------------------------|
D|--------------------0---1---2-----------0---2-------0-----------| x2
A|2-------2-------2-------------------2-----------------------4---|
E|----------------------------------------------------------------|

G|----------------------------------------------------------------|
D|--------------------------------3-------3-------2---1-----------|
A|2-------2-------2---2-------2-----------------------------------|
E|----------------------------------------------------------------|

G|----------------------------------------------------------------|
D|0-------0-------0---5---6-------7-------5---------------5---7---|
A|------------------------------------7---------------7-----------|
E|----------------------------------------------------------------|

G|--------------------------------|
D|7-------5---7-------5---5-------|
A|----7---------------------------|
E|--------------------------------|

G|----------------------------------------------------------------|
D|--------------------------------3-----------3-------2-------1---|
A|2-----------2---2---2-------2-----------------------------------|
E|----------------------------------------------------------------|

G|----------------------------------------------------------------|
D|0-------0-------0---5---6---7-----------------------------------|
A|----------------------------------------------------------------|
E|----------------------------------------------------------------|

            
            
Suggest correction
Creating personal tab
Creating personal tab
You can edit any tab online and save it as your Personal.

You can edit, replace or remove any tab part or add personal notes – all changes will be seen only by you.

Personal tabs can be accessed anytime from any device, even offline.
Learn more »
Give kudos to tab author, rate the tab!
1 2 3 4 5
comments
print report bad tab
guest
You may want to rate the tab now too:
select rating
Wanna post a correction for this tab? Suggest correction