Oops, an error
Loading. Please wait.

The Door Into Summer bass

184 views 1 this week
no commentswrite comment
1 2 3 4 5
3 more votes to show rating
add to favorites
×
Save as Personal and add changes to this tab that will be seen only by you. Learn more ›
×
You can save this tab as Personal to edit and correct it or add notes. All changes will be seen only by you. Learn more »
launch autoscroll
font size
0
reset
guitar tuner
edit
Autoscroll
slow
fast
+/-
esc
set tempo
stop
Author
Difficulty
Tabbed by: 6METAL6BASSIST6
E-mail: petergriffinav@gmail.com

Tuning: EADG

G|----------------|
D|----------------|
A|----3---5---3---|
E|5---------------|

G|----------------------------------------------------------------|
D|----------------------------------------------------------------| x2
A|5---------------------------------------------------3---5---3---|
E|------------------------------------------------5---------------|

G|----------------------------------------------------------------|
D|----------------------------------------------------------------| x2
A|5-----------5---5---5-------5-------5-------5---5---5-----------|
E|------------------------------------------------------------5---|

0:13

G|----------------------------------------------------------------|
D|--------------------------------5h7---------7---7---------------|
A|5-----------5---5-----------5-----------------------------------|
E|------------------------------------------------------------5---|

G|----------------------------------------------------------------|
D|----------------5-h-7-------7-------------------7---7-------7---|
A|5-----------5-------------------5-----------5-------------------|
E|----------------------------------------------------------------|

G|----------------------------------------------------------------|
D|--------------------------------5h7---------7---7-----------7---|
A|5-----------5---5-----------5-----------------------------------|
E|----------------------------------------------------------------|

G|----------------------------------------------------------------|
D|----------------5-h-7-------7-----------------------------------|
A|5-----------5-------------------5-----------5-------7---9---7---|
E|----------------------------------------------------------------|

0:24

G|----------------------------------------------------------------|
D|7-----------7---7---------------5-----------5---5---------------|
A|----------------------------5-------------------------------7---|
E|----------------------------------------------------------------|

G|----------------------------------------------------------------|
D|----------------------------4---5-----------5---5---------------|
A|5-----------5-------5---7-----------------------------------7---|
E|----------------------------------------------------------------|

G|----------------------------------------------------------------|
D|----------------------------------------------------------------|
A|5-----------5---5---5-----------3-----------3---3---3-------2-/-|
E|----------------------------5-----------------------------------|

G|----------------------------------------------------------------|
D|----------------7-----------7-----------------------------------|
A|5-----------5-------------------5-----------5-------7---9---7---|
E|----------------------------------------------------------------|

0:36

G|----------------------------------------------------------------|
D|7-----------7---7---------------5-----------5---5---------------|
A|----------------------------5-------------------------------7---|
E|----------------------------------------------------------------|

G|----------------------------------------------------------------|
D|----------------7-----------7-----------------------------------|
A|5-----------5-------------------5-----------5-------7---9---7---|
E|----------------------------------------------------------------|

G|----------------------------------------------------------------|
D|7-----------7---7---------------5-----------5---5---------------|
A|------------------------------------------------------------7---|
E|----------------------------------------------------------------|

G|----------------------------------------------------------------|
D|----------------7-----------7-----------------------------------|
A|5-----------5-------------------5-----------5-------7---9---7---|
E|----------------------------------------------------------------|

0:48

G|----------------------------------------------------------------|
D|7-----------7---7---------------5-----------5---5---------------|
A|------------------------------------------------------------7---|
E|----------------------------------------------------------------|

G|----------------------------------------------------------------|
D|--------------------------------5-----------5---5---5-----------|
A|5-----------5---5-----------7-------------------------------7---|
E|----------------------------------------------------------------|

G|----------------------------------------------------------------|
D|----------------------------------------------------------------|
A|5-------5-------5---5-------3-------3-------3---3---3-----------|
E|------------------------------------------------------------5---|

G|----------------------------------------------------------------|
D|----------------------------------------------------------------|
A|2-------2-------2---2-------3-------3-------3---3---3---3---3---|
E|----------------------------------------------------------------|

G|----------------------------------------------------------------|
D|----------------------------------------------------------------|
A|5---------------------------------------------------3---5---3---|
E|------------------------------------------------5---------------|

1:03

G|----------------------------------------------------------------|
D|--------------------------------5h7---------7---7---------------|
A|5-----------5---5-----------5-----------------------------------|
E|------------------------------------------------------------5---|

G|--------------------------------------------7-------------------|
D|----------------7-----------7-----------------------9-----------|
A|5-----------5-------------------5-----------------------9---7---|
E|----------------------------------------------------------------|

G|----------------------------------------------------------------|
D|----------------------------------------------------------------|
A|5-----------5---5-----------5-------------------------------2-/-|
E|--------------------------------5-----------5---5---------------|

G|----------------------------------------------------------------|
D|----------------7-----------7-----------------------4---5---6---|
A|5-----------5-------------------5---6-------7-------------------|
E|----------------------------------------------------------------|

1:15

G|----------------------------------------------------------------|
D|7-----------7---7-----------7---5-----------5-------------------|
A|----------------------------------------------------7-----------|
E|--------------------------------------------------------5---7---|

G|----------------------------------------------------------------|
D|--------------------------------5-----------5-------------------|
A|5-----------5---5-----------7-----------------------7-----------|
E|--------------------------------------------------------5---7---|

G|----------------------------------------------------------------|
D|----------------------------------------------------------------|
A|5-----------5---5-----------5-\-3-----------3---3-----------2---|
E|----------------------------------------------------------------|

G|--------------------------------7-------------------------------|
D|----------------7-----------7---------------9-------7-----------|
A|5-----------5-------------------------------------------9---7---|
E|----------------------------------------------------------------|

1:26

G|----------------------------------------------------------------|
D|7-----------7---7-----------7-\-5-----------5-------------------|
A|----------------------------------------------------7-----------|
E|--------------------------------------------------------5---7---|

G|----------------------------------------------------------------|
D|----------------7-----------7-----------------------------------|
A|5-----------5-------------------5-----------5-------7---9---7---|
E|----------------------------------------------------------------|

G|----------------------------------------------------------------|
D|7-----------7---7---------------5-----------5---5---------------|
A|----------------------------5-------------------------------7---|
E|----------------------------------------------------------------|

G|----------------------------------------------------------------|
D|----------------7-----------7---------------4-----------5-------|
A|5-----------5-------------------5---7---------------7-------7---|
E|----------------------------------------------------------------|

1:38

G|----------------------------------------------------------------|
D|7-----------7---7---------------5-----------5-------------------|
A|----------------------------5-----------------------7-----------|
E|--------------------------------------------------------5---7---|

G|----------------------------------------------------------------|
D|--------------------------------5-----------5-------------------|
A|5-----------5---5---5-------7-----------------------7-----------|
E|--------------------------------------------------------5---7---|

G|----------------7---7-------5-------5-------5---5---5-------5---|
D|----------------------------------------------------------------|
A|5-------5-------------------------------------------------------|
E|----------------------------------------------------------------|

G|4-------4-------4---4-------5-------5-------5---5---------------|
D|----------------------------------------------------7---5-------|
A|------------------------------------------------------------7---|
E|----------------------------------------------------------------|

G|----------------------------------------------------------------|
D|----------------------------------------------------------------|
A|5---------------------------------------------------3---5---3---|
E|------------------------------------------------5---------------|

1:52

G|----------------------------------------------------------------|
D|--------------/-7-------7-------5-----------5-------------------|
A|----------------------------------------------------7-----------|
E|5-----------5-------------------------------------------5---7---|

G|----------------------------------------------------------------|
D|----------------7-----------7-----------------------------------|
A|5-----------5-------------------5-----------5-------7---9---7---|
E|----------------------------------------------------------------|

G|----------------------------------------------------------------|
D|7-----------7---7-----------x---5-----------5-------------------|
A|----------------------------------------------------7-----------|
E|--------------------------------------------------------5---7---|

G|--------------------------------7-------------------------------|
D|----------------7-----------7-------9-------7-------------------|
A|5-----------5---------------------------------------9---7---9---|
E|----------------------------------------------------------------|

2:05

G|----------------------------------------------------------------|
D|7-----------7---7-----------7---5-----------5-------------------|
A|----------------------------------------------------7-----------|
E|--------------------------------------------------------5---7---|

G|----------------------------------------------------------------|
D|----------------------------4---5-----------5-------5-----------|
A|5-----------5-------5---7-------------------------------7-------|
E|------------------------------------------------------------5---|

G|----------------------------------------------------------------|
D|----------------------------------------------------------------|
A|5-------5-------5---5-------3-------3-------3---3---3-------0---|
E|----------------------------------------------------------------|

G|----------------------------------------------------------------|
D|----------------------------------------------------------------|
A|2-------2-------2---2-------3-------3-------3---3---3---3---5---|
E|----------------------------------------------------------------|

G|----------------------------------------------------------------|
D|----------------------------------------------------------------|
A|5-----------------------------------------------0---3---5---3---|
E|----------------------------------------------------------------|

G|--------------------------------7-------7-----------------------|
D|------------------------------------------------9---7-----------|
A|5-------------------------------------------------------9---7---|
E|----------------------------------------------------------------|

2:23

G|----------------------------------------------------------------|
D|----------------------------------------------------------------|
A|5-------5-------5---5-------3-------3-------3---3---3-------0---|
E|----------------------------------------------------------------|

G|----------------------------------------------------------------|
D|----------------------------------------------------------------|
A|2-------2-------2---2-------3-------3-------3---3---3---3---5---|
E|----------------------------------------------------------------|

G|----------------------------------------------------------------|
D|----------------------------------------------------------------|
A|5-------5-------5---5-------3-------3-------3---3---3-------0---|
E|----------------------------------------------------------------|

G|----------------------------------------------------------------|
D|--------------------------------------------------------4---7---|
A|2-------2-------2---2-------3-------3-------3---3---5-----------|
E|----------------------------------------------------------------|

G|7-------7-------7---7-------5-------5-------5---5---5-------5---|
D|----------------------------------------------------------------|
A|----------------------------------------------------------------|
E|----------------------------------------------------------------|

G|4-------4-------4---4-------5-------5-------5---5---5---5---6---|
D|----------------------------------------------------------------|
A|----------------------------------------------------------------|
E|----------------------------------------------------------------|

G|7-------7-------7---7-------5-------5-------5---5---5-------5---|
D|----------------------------------------------------------------|
A|----------------------------------------------------------------|
E|----------------------------------------------------------------|

G|4-------4-------4---4-------5-------5-------5---5---------------|
D|----------------------------------------------------7---5-------| fades out here.
A|------------------------------------------------------------7---|
E|----------------------------------------------------------------|

            
            
Suggest correction
Creating personal tab
Creating personal tab
You can edit any tab online and save it as your Personal.

You can edit, replace or remove any tab part or add personal notes – all changes will be seen only by you.

Personal tabs can be accessed anytime from any device, even offline.
Learn more »
Give kudos to tab author, rate the tab!
1 2 3 4 5
comments
print report bad tab
guest
You may want to rate the tab now too:
select rating
Wanna post a correction for this tab? Suggest correction