Oops, an error
Loading. Please wait.

Through The Looking Glass Bass Tab

version 2
version 2

Whole song

13 views 1 this week
no commentswrite comment
1 2 3 4 5
3 more votes to show rating
add to favorites
launch autoscroll
font size
0
reset
guitar tuner
Autoscroll
slow
fast
+/-
esc
set tempo
stop
Help us to improve Ultimate-Guitar.com Take our survey!
×
Author
Difficulty
novice
Tabbed by: 6METAL6BASSIST6
E-mail: petergriffinav@gmail.com

Tuning: 1/4 step down.

From the album Instant Replay.

G|------------------------------------------------------------------------------------------------|
D|------------------------------------------------------------------------------------------------|
A|------------------------------------------------------------------------------------------------|
E|------------------------------------------------------------------------------------------------|

G|------------------------------------------------------------------------------------------------|
D|------------------------------------4---------------------------------6-------------6-----------|
A|2-----------2-----------2---2-2-----------2---/-4-----------4-----------4---4-4-----------4---/-|
E|----------2-----------2-----------------------------------4-------------------------------------|

G|------------------------------------------------------------------------------------------------|
D|------------------------------------------------9-----------9-----------9-----9-----------------|
A|7-----------7-----7---/-10----------10----10--------------9-----------9-----9-------------9-----|
E|----------7-----------------------10------------------------------------------------7-----------|

0:24

G|------------------------------------------------------------------------------------------------|
D|------------------------------------4---------------------6-------------------------6-----------|
A|2-----------2-----------2-----2-----------2---/-4-----------4-----------4---4-4-----------4---/-|
E|----------2-----------2-----2-----------------------------------------4-------------------------|

G|------------------------------------------------------------------------------------------------|
D|------------------------------------------------9-----------9-----------9-----------------------|
A|7-----------7-----7---/-10----------10----10--------------9-----------9-----9-------------------|
E|----------7-----------------------10------------------------------------------7-----7-----7-----|

0:40

G|------------8---------9-11--9-8-----------------------------6-----------------------------------|
D|9---------11------------------------9-----------7---------9-----------7-6-----------------6-----|
A|----------------------------------------------------------------------------6-------6-----------|
E|------------------------------------------7-----------------------------------4-----------------|

G|------------------------------------------------------------------------------------------------|
D|------------6---------7-9---7-6-----------9-----------------------------------------------------|
A|7---------9-------------------------7-----------10----------------------9-----------------------|
E|------------------------------------------------------------------------------------------------|

G|------------------------------------------------|
D|------------------------------------------------|
A|------------------------------------------------|
E|------------------------------------------------|

1:01

G|------------------------------------------------------------------------------------------------|
D|------------------------------------4---------------------6-----------6-------------6-----------|
A|2-----------2-----------2---2-2-----------2---/-4-----------4-----------4---4-4-----------4---/-|
E|----------2-----------2-------------------------------------------------------------------------|

G|------------------------------------------------------------------------------------------------|
D|------------------------------------------------9-----------9-----------9-----9-----------------|
A|7-----------7-----7---/-10----------10----10--------------9-----------9-----9-------------9-----|
E|----------7-----------------------10------------------------------------------------7-----------|

1:16

G|------------------------------------------------------------------------------------------------|
D|------------------------------------------------------------------------------------------------|
A|2-----------------------------------------------4-----------------------------------------------|
E|------------------------------------------------------------------------------------------------|

G|------------------------------------------------------------------------------------------------|
D|------------------------------------------------9-----------------------------------------------|
A|7-----------------------10----------------------------------------------------------------------|
E|------------------------------------------------------------------------------------------------|

1:32

G|------------------------------------------------------------6-----------6-----------------------|
D|------------------------------------4---------------------6-----------6-----6-------6-----------|
A|2-----------2-----------2---2-2-----------2---/-4-----------------------------4-----------4---/-|
E|----------2-----------2-------------------------------------------------------------------------|

G|------------------------------------------------------------------------------------------------|
D|------------------------------------------------9-----------9-----------9-----9-----------------|
A|7-----------7-----7---/-10----------10----10--------------9-----------9-----9-------------------|
E|----------7-----------------------10------------------------------------------------7-----7-----|

1:48

G|------------8---------9-11--9-8-----------------------------6-----------------------------------|
D|9---------11------------------------9-----------7---------9-----------7-6-----------------6-----|
A|------------------------------------------9---------------------------------6-------6-----------|
E|------------------------------------------------------------------------------4-----------------|

G|------------------------------------------------------------------------------------------------|
D|------------6---------7-9---7-6-----------9-----------------------------------------------------|
A|7---------9-------------------------7-----------10----------------------9-----------------------|
E|------------------------------------------------------------------------------------------------|

G|------------------------------------------------|
D|------------------------------------------------|
A|------------------------------------------------|
E|------------------------------------------------|

2:08

G|------------------------------------------------------------------------------------------------|
D|------------------------------------4---------------------6-------------------------6-----------|
A|2-----------2-----------2-----2-----------2---/-4-----------4-----------4---4-4-----------4---/-|
E|----------2-----------2-----------------------------------------------4-------------------------|

G|------------------------------------------------------------------------------------------------|
D|------------------------------------------------9-----------9-----------9-----9-----------------|
A|7-----------7-----7---/-10----------10----10--------------9-----------9-----9-------------9-\---|
E|----------7-----------------------10------------------------------------------------7-----------|

2:24

G|------------------------------------------------------------------------------------------------|
D|------------------------------------4-----------------------------------------------4-----------|
A|2-----2-----2-----2---1/2---2-2-----------2-----2-----2-----2-----2-----2---2-2-----------2-----|
E|------------------------------------------------------------------------------------------------|

G|------------------------------------------------------------------------------------------------|
D|------------------------------4-----------------------------------------------------4-----------|
A|2-----2-----2-----2-----2-----------2-----------2-----2-----2-----2-----2-----2-----------2-----|
E|----------------------------------------2-2-----------------------------------------------------|

G|------------------|
D|------------------| fades out here.
A|2-----2-----2-----|
E|------------------|
Suggest correction
Give kudos to tab author, rate the tab!
1 2 3 4 5
comments
print report bad tab
guest
You may want to rate the tab now too:
select rating
Wanna post a correction for this tab? Suggest correction