Oops, an error
Loading. Please wait.

Valleri Bass Tab

version 2
version 2

Whole song

Interactive

13 views 1 this week
no commentswrite comment
1 2 3 4 5
3 more votes to show rating
add to favorites
launch autoscroll
font size
0
reset
guitar tuner
Autoscroll
slow
fast
+/-
esc
set tempo
stop
Help us to improve Ultimate-Guitar.com Take our survey!
×
Author
Difficulty
novice
Tabbed by: 6METAL6BASSIST6
E-mail: petergriffinav@gmail.com

Tuning: EADG

First recorded version.

G|----------------------------------------------------------------|.
D|----------------------------3---------------3---3-------3-------|.
A|5-------5-----------5---5---------------------------------------|.
E|----------------------------------------------------------------|.
                                                                   . x2
G|----------------------------------------------------------------|.
D|5-------5-----------5---5---7-----------------------------------|.
A|--------------------------------------------6---6---------------|.
E|--------------------------------------------------------5-------|.

0:14

G|----------------------------------------------------------------|
D|5-----------5-----------5-------3-----------3-------------------|
A|----------------5-----------5-------------------1-----------1---|
E|----------------------------------------------------------------|

G|----------------------------------------------------------------|
D|----------------------------------------------------------------|
A|3-----------3-----------3---5---5-----------5---5-------5-------|
E|----------------3-----------------------------------------------|

G|----------------------------------------------------------------|
D|5-----------5-----------5-------3-----------3-------------------|
A|----------------5-----------5-------------------1-----------1---|
E|----------------------------------------------------------------|

G|----------------------------------------------------------------|
D|----------------------------------------------------------------|
A|3-----------3---------------3---5-----------5---5-------5-------|
E|----------------3-----------------------------------------------|

0:28

G|----------------------------------------------------------------|
D|5-----------5---5---------------3-----------3---3---------------|
A|----------------------------------------------------------------|
E|----------------------------------------------------------------|

G|----------------------------------------------------------------|
D|----------------------------------------------------------------|
A|1-----------1---1---------------5-----------5---5---------------|
E|----------------------------------------------------------------|

G|----------------------------------------------------------------|
D|5-----------5---5---------------3-----------3---3---------------|
A|----------------------------------------------------------------|
E|----------------------------------------------------------------|

G|----------------------------------------------------------------|
D|----------------------------------------------------------------|
A|1-----------1---1---------------5-----------5---5---------------|
E|--------------------------------------------------------5-------|

0:41

G|----------------------------------------------------------------|
D|5-----------5-----------5-------3-------3-----------------------|
A|----------------5-----------5-------------------1-------1-------|
E|----------------------------------------------------------------|

G|----------------------------------------------------------------|
D|----------------------------------------------------------------|
A|3-------3---------------3-------5-------5---------------5-------|
E|----------------3-------------------------------5---------------|

G|----------------------------------------------------------------|
D|5-------5---------------5-------3-------3-----------------------|
A|----------------5-------------------------------1-------1-------|
E|----------------------------------------------------------------|

G|----------------------------------------------------------------|
D|----------------------------------------------------------------|
A|3-------3---------------3-------5-------5---------------5-------|
E|----------------3-------------------------------5---------------|

0:54

G|----------------------------------------------------------------|
D|5-----------5-----------5---------------------------------------|
A|--------5-----------5-------5---7-----------7-----------7-------|
E|----------------------------------------7-----------7-------7---|

G|----------------------------------------------------------------|
D|5-----------5-----------5---------------------------------------|
A|--------5-----------5-------5---7-------7-----------------------|
E|----------------------------------------------------------------|

1:01

G|----------------------------------------------------------------|.
D|----------------------------3---------------3---3-------3-------|.
A|5-------5-----------5---5---------------------------------------|.
E|----------------------------------------------------------------|.
                                                                   . x2
G|----------------------------------------------------------------|.
D|5-------5-----------5---5---7-----------------------------------|.
A|--------------------------------------------6---6---------------|.
E|--------------------------------------------------------5-------|.

1:14

G|----------------------------------------------------------------|
D|5-----------5---5---------------3-----------3---3---------------|
A|----------------------------------------------------------------|
E|----------------------------------------------------------------|

G|----------------------------------------------------------------|
D|----------------------------------------------------------------|
A|1-----------1---1---------------5-----------5---5---------------|
E|----------------------------------------------------------------|

G|----------------------------------------------------------------|
D|5-----------5---5---------------3-----------3---3---------------|
A|----------------------------------------------------------------|
E|----------------------------------------------------------------|

G|----------------------------------------------------------------|
D|----------------------------------------------------------------|
A|1-----------1---1---------------5-----------5---5---------------|
E|--------------------------------------------------------5-------|

1:27

G|----------------------------------------------------------------|
D|5-----------5-----------5-------3-------3-----------------------|
A|----------------5-----------5-------------------1-------1-------|
E|----------------------------------------------------------------|

G|----------------------------------------------------------------|
D|----------------------------------------------------------------|
A|3-------3---------------3-------5-------5---------------5-------|
E|----------------3-------------------------------5---------------|

G|----------------------------------------------------------------|
D|5-------5---------------5-------3-------3-----------------------|
A|----------------5-------------------------------1-------1-------|
E|----------------------------------------------------------------|

G|----------------------------------------------------------------|
D|----------------------------------------------------------------|
A|3-------3---------------3-------5-------5---------------5-------|
E|----------------3-------------------------------5---------------|

1:41

G|----------------------------------------------------------------|.
D|5---------------------------------------------------------------|.
A|--------------------------------8-------------------------------|.
E|----------------------------------------------------------------|.
                                                                   . x2
G|----------------------------------------------------------------|.
D|----------------------------------------------------------------|.
A|6-------------------------------5-------------------------------|.
E|----------------------------------------------------------------|.

1:53

G|----------------------------------------------------------------|
D|5-----------5-----------5-------3-------3-----------------------|
A|----------------5-----------5-------------------1-------1-------|
E|----------------------------------------------------------------|

G|----------------------------------------------------------------|
D|----------------------------------------------------------------|
A|3-------3---------------3-------5-------5---------------5-------|
E|----------------3-------------------------------5---------------|

G|----------------------------------------------------------------|
D|5-------5---------------5-------3-------3-----------------------|
A|----------------5-------------------------------1-------1-------|
E|----------------------------------------------------------------|

G|----------------------------------------------------------------|
D|----------------------------------------------------------------|
A|3-------3---------------3-------5-------5---------------5-------|
E|----------------3-------------------------------5---------------|

2:08

G|----------------------------------------------------------------|
D|5---------------------------------------------------------------|
A|--------------------------------8-------------------------------|
E|----------------------------------------------------------------|

G|----------------------------------------------------------------|
D|----------------------------------------------------------------|
A|6-------------------------------5-------------------------------|
E|----------------------------------------------------------------|

2:13

G|----------------------------------------------------------------|
D|5-----------5-----------5---------------------------------------|
A|--------5-----------5-------5---8-----------8-----------8-------|
E|----------------------------------------8-----------8-------8---|

G|----------------------------------------------------------------|
D|----------------------------------------------------------------|
A|6-----------6-----------6-------5-----------5-----------5-------|
E|--------6-----------6-------6-----------5-----------5-------5---|

G|----------------------------------------------------------------|
D|5-----------5-----------5---------------------------------------|
A|--------5-----------5-------5---8-----------8-----------8-------|
E|----------------------------------------8-----------8-------8---|

G|--------------------------------------------------------------------|
D|--------------------------------------------------------------------|
A|6-----------6-----------6-------5-----------------5-----------------|
E|--------6-----------6-------6---------------------------------------|

G|--------------------------------|
D|--------------------------------|
A|--------------------------------|
E|3-------------------------------|
Suggest correction
Give kudos to tab author, rate the tab!
1 2 3 4 5
comments
print report bad tab
guest
You may want to rate the tab now too:
select rating
Wanna post a correction for this tab? Suggest correction