Oops, an error
Loading. Please wait.

Valleri chords

version 3
version 3

Whole song

  • This has the intro tabbed as I've never found it anywhere esle.

Interactive

475 views 30 this week
no commentswrite comment
1 2 3 4 5
3 more votes to show rating
add to favorites
×
Save as Personal and add changes to this tab that will be seen only by you. Learn more ›
×
You can save this tab as Personal to edit and correct it or add notes. All changes will be seen only by you. Learn more »
launch autoscroll
font size
0
reset
transpose
0
reset
simplify chords
display chords
guitar tuner
edit
Autoscroll
slow
fast
+/-
esc
set tempo
stop
Author
About this tab version
This has the intro tabbed as I've never found it anywhere esle. Was this info helpful? Yes No
Strumming
There is no strumming pattern for this song yet. and get +5 IQ
Valleri
(Tommy Boyce - Bobby Hart


 [Intro]
   Fm                                      Eb
e|-------------8h9p8--------------------|------------------------------------------| 
B|-----8-9h11---------11p9--11p9p8------|-8h9p8----8------------8h9h11--11p9p8-----|
G|-10--------------------------------10-|-------10-----10p8h10-----------------10--| 
D|--------------------------------------|------------------------------------------|
A|--------------------------------------|------------------------------------------| 
E|--------------------------------------|------------------------------------------|

  Db                                          C
e|------------------------------------------|---------------| 
B|-8-9p8----8--------------------------8-9--|-8h9p8---------|
G|-------10----10p8----8--------8-8h10------|-------10-9h10-| 
D|------------------11----10-11-------------|---------------|
A|------------------------------------------|---------------| 
E|------------------------------------------|---------------|

  [Chorus] fuzz guitar [2X]:
    (C)        F                 Eb      Ab        Bb               C
e|-----------|-----------------|-----------------|-----------------|
B|-----------|-----------------|-----------------|-----------------|
G|-----------|-----------------|-----------------|-----------------|
D|-----------|-------------3-1-|-----------------|-----------------|
A|-----------|-----------3-----|-------3-3---1---|-------------1-3-|
E|-4-4---3---|-1---1-----------|-----------------|-4---4-----4-----|
               Va...         a...       a... a...  al...       leri

(C)
I love her
F    Eb  Ab      Bb     C 
Va...a...a...a...al...leri

[Verse 1]
  F        Eb              Ab               C
There's a girl I know who makes me feel so good
  F        Eb              Ab               C
And I wouldn't live without her even if I could

[Chorus]
C
They call her
F    Eb  Ab      Bb     C 
Va...a...a...a...al...leri
C
I love her
F    Eb  Ab      Bb     C 
Va...a...a...a...al...leri

[Bridge]
F         Dm
  Oh yeah    come on

F        Dm [N.C.]
 
(repeat fuzz guitar as per chorus, w/different chords:)
            F/C        Eb       Ab/F     C/G      [2X]
e|-----------|-----------------|-----------------|-----------------|
B|-----------|-----------------|-----------------|-----------------|
G|-----------|-----------------|-----------------|-----------------|
D|-----------|-------------3-1-|-----------------|-----------------|
A|-----------|-----------3-----|-------3-3---1---|-------------1-3-|
E|-4-4---3---|-1---1-----------|-----------------|-4---4-----4-----|

[Verse 2]
  F             Eb                     Ab             C
She's the same little girl who used to hang around my door
  F                Eb                 Ab               C
But she sure looks different than the way she looked before

[Chorus]
C
I call her
F    Eb  Ab      Bb     C 
Va...a...a...a...al...leri
C
I love her
F    Eb  Ab      Bb     C 
Va...a...a...a...al...leri

[intro] 2X
  Fm                                      Eb
e|-------------8h9p8--------------------|------------------------------------------| 
B|-----8-9h11---------11p9--11p9p8------|-8h9p8----8------------8h9h11--11p9p8-----|
G|-10--------------------------------10-|-------10-----10p8h10-----------------10--| 
D|--------------------------------------|------------------------------------------|
A|--------------------------------------|------------------------------------------| 
E|--------------------------------------|------------------------------------------|

 Db                                          C
e|------------------------------------------|---------------| 
B|-8-9p8----8--------------------------8-9--|-8h9p8---------|
G|-------10----10p8----8--------8-8h10------|-------10-9h10-| 
D|------------------11----10-11-------------|---------------|
A|------------------------------------------|---------------| 
E|------------------------------------------|---------------|

  Fm                                      Eb
e|-------------8h9p8--------------------|------------------------------------------| 
B|-----8-9h11---------11p9--11p9p8------|-8h9p8----8------------8h9h11--11p9p8-----|
G|-10--------------------------------10-|-------10-----10p8h10-----------------10--| 
D|--------------------------------------|------------------------------------------|
A|--------------------------------------|------------------------------------------| 
E|--------------------------------------|------------------------------------------|

 Db                                          C
e|------------------------------------------|---------------| 
B|-8-9p8----8--------------------------8-9--|-8h9p8---------|
G|-------10----10p8----8--------8-8h10------|-------10-9h10-| 
D|------------------11----10-11-------------|---------------|
A|------------------------------------------|---------------| 
E|------------------------------------------|---------------|

[Chorus]
F    Eb  Ab      Bb     C 
Va...a...a...a...al...leri
C
I love her
F    Eb  Ab      Bb     C 
Va...a...a...a...al...leri

[intro] 1x
  Fm                                      Eb
e|-------------8h9p8--------------------|------------------------------------------| 
B|-----8-9h11---------11p9--11p9p8------|-8h9p8----8------------8h9h11--11p9p8-----|
G|-10--------------------------------10-|-------10-----10p8h10-----------------10--| 
D|--------------------------------------|------------------------------------------|
A|--------------------------------------|------------------------------------------| 
E|--------------------------------------|------------------------------------------|

 Db                                          C
e|------------------------------------------|---------------| 
B|-8-9p8----8--------------------------8-9--|-8h9p8---------|
G|-------10----10p8----8--------8-8h10------|-------10-9h10-| 
D|------------------11----10-11-------------|---------------|
A|------------------------------------------|---------------| 
E|------------------------------------------|---------------|

[Coda]
            F   Eb Db    C
I love her, Va..a..al..leri
            F   Eb Db    C  [fade]
I need her, Va-a-al-leri

            
            
Suggest correction
Creating personal tab
Creating personal tab
You can edit any tab online and save it as your Personal.

You can edit, replace or remove any tab part or add personal notes – all changes will be seen only by you.

Personal tabs can be accessed anytime from any device, even offline.
Learn more »
Give kudos to tab author, rate the tab!
1 2 3 4 5
comments
print report bad tab
guest
You may want to rate the tab now too:
select rating
Wanna post a correction for this tab? Suggest correction