Oops, an error
Loading. Please wait.

What Am I Doin Hangin Round bass

112 views 6 this week
no commentswrite comment
1 2 3 4 5
3 more votes to show rating
add to favorites
×
Save as Personal and add changes to this tab that will be seen only by you. Learn more ›
×
You can save this tab as Personal to edit and correct it or add notes. All changes will be seen only by you. Learn more »
launch autoscroll
font size
0
reset
guitar tuner
edit
Autoscroll
slow
fast
+/-
esc
set tempo
stop
Author
Difficulty
Tabbed by: 6METAL6BASSIST6
E-mail: petergriffinav@gmail.com

Tuning: 1/4 step down.

G|------|
D|3---/-|
A|------|
E|------|

G|------------------------------------------------------------------------------------------------|
D|8-----------------3---/-8-----------------3---/-8-----------------3---/-8-----7-----6-----5-----|
A|------------------------------------------------------------------------------------------------|
E|------------------------------------------------------------------------------------------------|

0:05

G|------------------------------------------------------------5---3-------------------------------|
D|3-----------------------3-----------2-----------------------------5-----3-----------------------|
A|------------3-----5-----------------------5-----3-----------------------------------3-----------|
E|------------------------------------------------------------------------------------------------|

G|------------------------|
D|3-----------------------|
A|------------3-----5-----|
E|------------------------|

G|------------------------------------------------------------------------------------------------|
D|3-----------------------3-----------2-----------------------------2-----3-----------------------|
A|------------3-----5-----------------------5-----3-----------5-----------------------3-----5-----|
E|------------------------------------------------------------------------------------------------|

G|------------------------|
D|3-----4-----5-----7-----|
A|------------------------|
E|------------------------|

0:15

G|3-----------------------------------------------3-----------------------------------------------|
D|------------7-----5-----------------5-----3-----------------7-----5-----------------5-----3-----|
A|------------------------3-----------------------------------------------3-----------------------|
E|------------------------------------------------------------------------------------------------|

G|3-----------------------------------------------3-----------------------------------------------|
D|------------7-----5-----------------5-----3-----------------7-----------5-----------7-----8-----|
A|------------------------3-----------------------------------------------------------------------|
E|------------------------------------------------------------------------------------------------|

G|------------------------------------------------------------------------------------------------|
D|10----------------------10----------10----9-----8-----------8-----------8---------8-------------|
A|------------10----------------------------------------------------------------------------------|
E|------------------------------------------------------------------------------------------------|

G|------------------------------------------------------------------------10----8-----7-----------|
D|7-----------7-----------7-----------7---------------------------------10------------------10----|
A|------------------------------------------10----8-----------8-----------------------------------|
E|------------------------------------------------------------------------------------------------|

0:33

G|------------------------------------------------------------------------------------------------|
D|8-----------7-----------------------7-----8-----10----------8-----------------------------------|
A|------------------------10----------------------------------------10----------------8-----6-----|
E|------------------------------------------------------------------------8-----------------------|

G|------------------------------------------------------------------------------------------------|
D|------------------------------------------------------------------------------------------------|
A|5-----------------3-----5-----------------5-----6-----------------5-----6-----------------4-----|
E|------------5-----------------------5-----------------------6-----------------------6-----------|

G|------------------------------------------------------------------------------------------------|
D|4-----------------------4-----------------4---/-8-----------7-----------------------7-----8-----|
A|------------4-----6-----------------4-----------------------------------10----------------------|
E|------------------------------------------------------------------------------------------------|

G|------------------------------------------------------------------------|
D|------------7-----8-----10----------8-----------------------------7-----|
A|10----------------------------------------10----8-----------10----------|
E|------------------------------------------------------------------------|

G|------------------------------------------------------------------------------------------------|
D|8-----------3-----5---/-8-----------------3---/-8-----------------3---/-8-----------7-----5-----|
A|------------------------------------1-----------------------1-----------------------------------|
E|------------------------------------------------------------------------------------------------|

0:54

G|------------------------------------------------------------5---3-----------------------------------|
D|3-----------------------3-----------2-----------------------------5-----3-------------------3-------|
A|------------3-----5-----------------------5-----3-----------------------------------3---5-------5---|
E|----------------------------------------------------------------------------------------------------|

G|------------------------|
D|3-----3-----------------|
A|------------3-----5-----|
E|------------------------|

G|------------------------------------------------------------5---3-----------------------------------|
D|3-----------------------3-----------2-----------------------------5-----3-------------------3-------|
A|------------3-----5-----------------------5-----3-----------------------------------3---5-------5---|
E|----------------------------------------------------------------------------------------------------|

G|------------------------|
D|3-----4-----5-----7-----|
A|------------------------|
E|------------------------|

1:05

G|3-----------------------------------------------3-----------------------------------------------|
D|------------7-----5-----------------5-----3-----------------7---5-------------------5-----3-----|
A|------------------------3-----------------------------------------------3-----------------------|
E|------------------------------------------------------------------------------------------------|

G|3-----------------------------------------------3-----------------------------------------------|
D|------------7-----5-----------------5-----3-----------------7-----------5-----------7-----8-----|
A|------------------------3-----------------------------------------------------------------------|
E|------------------------------------------------------------------------------------------------|

G|------------------------------------------------------------------------------------------------|
D|10----------10--------------10------10----9-----8-----------8---------------8-----8-8-----------|
A|------------------------------------------------------------------------8-----------------------|
E|------------------------------------------------------------------------------------------------|

G|------------------------------------------------------------------------10----8-----7-----------|
D|7-----------7-----------7-----------7-----------------------------10----------------------10----|
A|------------------------------------------10----8-----------8-----------------------------------|
E|------------------------------------------------------------------------------------------------|

1:23

G|------------------------------------------------------------------------------------------------|
D|8-----------7-----------------------7-----8-----10----------10----------10----------8-----------|
A|------------------------10----------------------------------------------------------------10\---|
E|------------------------------------------------------------------------------------------------|

G|------------------------------------------------------------------------------------------------|
D|------------------------------------------------------------------------------------------------|
A|5---------------------3-5-----------------------6-----------------------6---------6-------6-----|
E|------------5-----------------------5-----------------------6-----------------------6-----------|

G|------------------------------------------------------------------------------------------------|
D|4-----------------------4---------4-------4---/-8-----------7-----------------------------------|
A|------------4-----6-----------------6-----------------------------------10----------------8-----|
E|------------------------------------------------------------------------------------10----------|

G|------------------------------------------------------------------------|
D|------------7-----8-----10----------8-----------------------------7-----|
A|10----------------------------------------10----8-----------10----------|
E|------------------------------------------------------------------------|

G|------------------------------------------------------------------------------------------------|
D|8-----------3-----1---/-8-----------------3---/-8-----------------3---/-8---------7-------5-----|
A|------------------------------------1-----------------------1-----------------------------------|
E|------------------------------------------------------------------------------------------------|

1:43

G|----------------------------------------------------------5-3---------------------------------------|
D|3-----------------------3-----------2---------------------------5-------3-------------------3-------|
A|------------3-----5-----------------------5-----3-----------------3-----------------3---5-------5---|
E|----------------------------------------------------------------------------------------------------|

G|------------------------|
D|3-----------------------|
A|------------3-----5-----|
E|------------------------|

G|------------------------------------------------------------5---3-----------------------------------|
D|3-----------------------3-----------2-----------------------------5-----3-------------------3-------|
A|------------3-----5-----------------------5-----3-----------------------------------3---5-------5---|
E|----------------------------------------------------------------------------------------------------|

G|------------------------|
D|3-----4-----5-----7-----|
A|------------------------|
E|------------------------|

1:55

G|3-----------------------------------------------3-----------------------------------------------|
D|------------7-----5---------------x-------3-----------------7-----5---------------5-------3-----|
A|------------------------3-----------------------------------------------3-----------------------|
E|------------------------------------------------------------------------------------------------|

G|3-----------------------------------------------3-----------------------------------------------|
D|------------7-----5---------------5-------3-----------------7-----------5-----------7-----8-----|
A|------------------------3-----------------------------------------------------------------------|
E|------------------------------------------------------------------------------------------------|

G|------------------------------------------------------------------------------------------------|
D|10----------10----------10----------10----9-----8-----------8-----------8-----------8-----------|
A|------------------------------------------------------------------------------------------------|
E|------------------------------------------------------------------------------------------------|

G|------------------------------------------------------------------------10----8-----7-----------|
D|7-----------7-----------7-----------7---------------------------------10------------------10----|
A|------------------------------------------10----8-----------8-----------------------------------|
E|------------------------------------------------------------------------------------------------|

2:13

G|------------------------------------------------------------------------------------------------|
D|8-----------7-----------------------7-----8-----10----------10--8-------------------------------|
A|------------------------10----------------------------------------10----------------8-----6-----|
E|------------------------------------------------------------------------8-----------------------|

G|------------------------------------------------------------------------------------------------|
D|------------------------------7-/---12----10----------------------------------------------------|
A|5---------5-------3-----5-----------------------6---------6-------5-----6---------6-------5-----|
E|------------5-----------------------------------------------6-----------------------------------|

G|------------------------------------------------------------------------------------------------|
D|4-----------------------4-----------------4---/-8-----------7-----------------------------------|
A|------------4-----6-----------------4-----------------------------------10----------------8-----|
E|----------------------------------------------------------------------------------10------------|

G|------------------------------------------------------------------------------------------------|
D|------------7-----8-----10----------8-----------------------------7-----8-----------------7-----|
A|10----10----------------------------------10----8-----------10----------------------8-----------|
E|------------------------------------------------------------------------------------------------|

G|------------------------|
D|------------------7-----|
A|8-----------8-----------|
E|------------------------|

2:32

G|------------------------------------------------------------------------------------------------|
D|8-----------7-----------------------7-----8-----10----------10----8-----------------------------|
A|------------------------10----------------------------------------------10----------10----8-----|
E|------------------------------------------------------------------------------8-----------------|

G|------------------------------------------------------------------------------------------------|
D|----------------------12---12-10----------------------------------------------------------------|
A|5-----------------5-/---------------12\---------6-----------------5-----6-----------------4-----|
E|------------5-----------------------------------------------6---------------------6-------------|

G|------------------------------------------------------------------------------------------------|
D|4-----------------------4-----------------4---/-8-----8-----7-----7-----------------------------|
A|------------4-----6-----------6-----4-----------------------------------10----10----------8-----|
E|------------------------------------------------------------------------------------10----------|

G|------------------------------------------------------------------------------------------------|
D|------------7-----8-----10----8-----7-----------------------------5---/-8-----8-----8-----8-----|
A|10----10----------------------------------10----8-----8-----8-----------------------------------|
E|------------------------------------------------------------------------------------------------|

G|------------------------|
D|8-----8-----8-----------|
A|------------------8-----|
E|------------------------|

2:50

G|------------------------------------------------------------------------------------------------|
D|8-----8-----7-----7-----------------7-----8-----10----10----8-----------------------------------|
A|------------------------10----10----------------------------------10----------10----8-----6-----|
E|------------------------------------------------------------------------8-----------------------|

G|------------------------------------------------------------------------------------------------|
D|------------------------------12----10----------------------------------------------------------|
A|5-----5-----------3---5-----/-------------12\---6-----------------5-----6-----------------4-----|
E|------------5-----------------------------------------------6-----------------------6-----------|

G|------------------------------------------------------------------------------------------------|
D|4-----------------------4-----------------4---/-8-----------7-----------------------------------|
A|------------4---------------------4-------------------------------------10----------8-----10----|
E|------------------------------------------------------------------------------------------------|

G|------------------------------------------------------|
D|------------------8-----10----8-----7-----------------| fades out here.
A|----8-10----10----------------------------10----8-----|
E|------------------------------------------------------|

            
            
Suggest correction
Creating personal tab
Creating personal tab
You can edit any tab online and save it as your Personal.

You can edit, replace or remove any tab part or add personal notes – all changes will be seen only by you.

Personal tabs can be accessed anytime from any device, even offline.
Learn more »
Give kudos to tab author, rate the tab!
1 2 3 4 5
comments
print report bad tab
guest
You may want to rate the tab now too:
select rating
Wanna post a correction for this tab? Suggest correction