Oops, an error
Loading. Please wait.

While I Cry bass

73 views 3 this week
no commentswrite comment
1 2 3 4 5
3 more votes to show rating
add to favorites
×
Save as Personal and add changes to this tab that will be seen only by you. Learn more ›
×
You can save this tab as Personal to edit and correct it or add notes. All changes will be seen only by you. Learn more »
launch autoscroll
font size
0
reset
guitar tuner
edit
Autoscroll
slow
fast
+/-
esc
set tempo
stop
Author
Difficulty
Tabbed by: 6METAL6BASSIST6
E-mail: petergriffinav@gmail.com

Tuning: EADG

0:10

G|----------------------------------------------------------------|
D|----------------------------------------------------------------|
A|5-------------------------------4-------------------------------|
E|----------------------------------------------------------------|

G|----------------------------------------------------------------|
D|----------------------------------------------------------------|
A|3-------------------------------2---------------------------4---|
E|----------------------------------------------------------------|

G|----------------------------------------------------------------|
D|----------------------------------------------------------------|
A|5-----------5---5-----------5-----------------------------------|
E|--------------------------------5-----------5---5-----------x---|

G|----------------------------------------------------------------|
D|----------------------------------------------------------------|
A|5-----------5---5-----------5---5-----------5---5-----------5---|
E|----------------------------------------------------------------|

0:30

G|----------------------------------------------------------------|
D|----------------------------------------------------------------|
A|5-----------5---5-----------5---4-----------4---4-----------4---|
E|----------------------------------------------------------------|

G|----------------------------------------------------------------|
D|----------------------------------------------------------------|
A|3-----------3---3-----------3---2-----------2---2-----------4---|
E|----------------------------------------------------------------|

G|----------------------------------------------------------------|
D|----------------------------------------------------------------|
A|5-----------5---5-----------5-----------------------------------|
E|--------------------------------5-----------5---5-----------5---|

G|----------------------------------------------------------------|
D|----------------------------------------------------------------|
A|5-----------5---5-----------5---5-----------5---5-----------4---|
E|----------------------------------------------------------------|

0:48

G|----------------------------------------------------------------|
D|----------------------------------------------------------------|
A|5-----------5---5-----------5---4-----------4---4-----------4---|
E|----------------------------------------------------------------|

G|----------------------------------------------------------------|
D|----------------------------------------------------------------|
A|3-----------3---3-----------3---2-----------2---2-----------2---|
E|----------------------------------------------------------------|

G|----------------------------------------------------------------|
D|----------------------------6---7-----------7---7-----------7---|
A|5-----------5---5-----------------------------------------------|
E|----------------------------------------------------------------|

G|----------------------------------------------------------------|
D|----------------------------------------------------------------|
A|5-----------5---5-----------5---5-----------5---5-----------5---|
E|----------------------------------------------------------------|

1:07

G|--------------------7-------------------------------------------|
D|5-------5-------5-------5-------5-------5---------------5---4---|
A|----------------------------5-----------------5-5---5-----------|
E|----------------------------------------------------------------|

G|----------------------------4-----------------------4-----------|
D|2-------2---------------2-------2-------2-----2-2-------2-------|
A|----------------2---2---------------------------------------2---|
E|----------------------------------------------------------------|

G|----------------------------5-----------------------------------|
D|----------------2---3---5---------------------------2---3-------|
A|3-------3-----------------------3-------3-------3-----------3---|
E|----------------------------------------------------------------|

G|--------------------------------2-------------2-2---------------|
D|----------------------------2-----------------------2-----------|
A|--------------------3---4-------------------------------3---4---|
E|5-------5-------5-----------------------5-----------------------|

1:26

G|----------------------------------------------------------------|
D|----------------------------------------------------------------|
A|5-----------5---5-----------5---4-----------4---4-----------4---|
E|----------------------------------------------------------------|

G|----------------------------------------------------------------|
D|----------------------------------------------------------------|
A|3-----------3---3-----------3---2-----------2---2-----------4---|
E|----------------------------------------------------------------|

G|----------------------------------------------------------------|
D|----------------------------6---7---------------------------5---|
A|5-----------5---5-----------------------------------------------|
E|--------------------------------------------5---5---------------|

G|----------------------------------------------------------------|
D|----------------------------7-----------------------------------|
A|--------5-----------5-----------5-------5-------5---5-------5---|
E|----------------------------------------------------------------|

1:43

G|------------------------3---5-----------------------------------|
D|----------------5-------------------------------2-------2-------|
A|3-------3-----------------------3-------3-------------------3---|
E|----------------------------------------------------------------|

G|------------------------5---6---7---------------5---6---7-------|
D|----------------4---7-------------------7-------------------7---|
A|5-------5---------------------------5---------------------------|
E|----------------------------------------------------------------|

G|--------------------3---5---------------------------------------|
D|----------------5-----------5-----------------------------------|
A|3-------3-----------------------3-------3-------3-------3-------|
E|----------------------------------------------------------------|

G|--------------------5---7---------------------------------------|
D|----------------7---------------------------------------7-------|
A|5-------5-----------------------5-------5-------5---5-------5---|
E|----------------------------------------------------------------|

2:03

G|----------------------------------------------------------------|
D|4-------4-------4-------4-------4-------4-------4-------4-------|
A|------------4---------------4---------------4-------4-------4---|
E|----------------------------------------------------------------|

G|----------------4-------4---------------4-------4-------4-------|
D|------------4---------------4-------4-------4-------4-------4---|
A|2-------2-----------------------2-------------------------------|
E|----------------------------------------------------------------|

G|----------------------------4-------------------------------4---|
D|2-------2-------2-------2-------2-------2-------2-------2-------|
A|------------2-------2-----------------------2-------2-----------|
E|----------------------------------------------------------------|

G|2-------2-------2-----------------------------------------------|
D|------------2-------2-------------------------------------------|
A|------------------------4---2---------------------------7---4---|
E|--------------------------------5---5---5---5-/-9---------------|

2:21

G|----------------------------------------------------------------|
D|----------------------------------------------------------------|
A|5-------------------5---5-------4-----------4---4-------4-------|
E|----------------------------------------------------------------|

G|----------------------------------------------------------------|
D|----------------------------------------------------------------|
A|3-----------3---3-------3-------2-----------2---2-------2-------|
E|----------------------------------------------------------------|

G|----------------------------------------------------------------|
D|----------------------------------------------------------------|
A|5-----------5---5-----------5-----------------------------------|
E|--------------------------------5-----------5---5-------5-------|

G|----------------------------------------------------------------|
D|----------------------------------------------------------/-7---|
A|5-----------5---5---------------5-----------5---5---------------|
E|----------------------------5-----------------------------------|

2:36

G|----------------------------------------------------------------|
D|----------------------------------------------------------------|
A|5-----------5---5-----------5---4-----------4---4---------------|
E|----------------------------------------------------------------|

G|----------------------------------------------------------------|
D|----------------------------------------------------------------|
A|3-------------3-----3---------------2-------------2-----2-------|
E|----------------------------------------------------------------|

G|----------------------------------------------------------------|
D|----------------------------------------------------7-----------|
A|------4-----5-------------5-----5-------------5-----------------|
E|----------------------------------------------------------------|

G|----------------------------------------------------------------|
D|----------------------------7-----------------------------------|
A|----------------------------------------------------------------|
E|--------5-------------------------------------------------------|

            
            
Suggest correction
Creating personal tab
Creating personal tab
You can edit any tab online and save it as your Personal.

You can edit, replace or remove any tab part or add personal notes – all changes will be seen only by you.

Personal tabs can be accessed anytime from any device, even offline.
Learn more »
Give kudos to tab author, rate the tab!
1 2 3 4 5
comments
print report bad tab
guest
You may want to rate the tab now too:
select rating
Wanna post a correction for this tab? Suggest correction